My Tripod Page
Make your own free website on Tripod.com
Don't Wreck It-Age Of Electric

Song: Don't Wreck It
Band: Age of Electric
Album: Make a Pest a Pet
Tabbed by: David Harrison (blaze@interlog.com)
Brought to you by Davey's Weekly Tabs. E-Mail Davey713@aol.com to join.

[Riff 1]-Guitar 1
E|--------------------------------------------|
B|--------------------------------------------|
G|-4--4--x--x--2--2--x--x--2--4-2--4-2--4-2-x-|
D|-5--5--x--x--4--4--x--x-------------------x-|
A|--------------------------------------------|
E|--------------------------------------------|


[Fill 1]-Guitar 2
E|---------------------------------------------------|
B|---------------------------------------------------|
G|-------------5p4------------------7------7---------|
D|-7~~/9------------5-----5/7/9---------------5------|
A|---------------------------------------------------|
E|---------------------------------------------------|


[Riff 2]-Guitar 1
E|--------------------------------------------------------------------|
B|--------------------------------------------------------------------|
G|----------------------------------------5---5---5---5---5---5---5---5--x-x-|

D|-5---5---5---x-x-7---7---7---x-x-5---5---5---5---5---5---5---5--x-x-|
A|-5---5---5---x-x-7---7---7---x-x-3---3---3---3---3---3---3---3--x-x-|
E|-3---3---3---x-x-5---5---5---x-x------------------------------------|

or

E|--------------------------------------------------------------------|
B|--------------------------------------------------------------------|
G|----------------------------------------5---4---5---4---5---4---5---4--x-x-|

D|-5---5---5---x-x-7---7---7---x-x-5---5---5---5---5---5---5---5--x-x-|
A|-5---5---5---x-x-7---7---7---x-x-3---3---3---3---3---3---3---3--x-x-|
E|-3---3---3---x-x-5---5---5---x-x------------------------------------|



[Riff 3]-Guitar 1
E|-3---------------5---------------3---------------------------------|
B|-3---------------5---------------5---------------------------------|
G|-4---------------6---------------5---------------------------------|
D|-5---------------7---------------5---------------------------------|
A|-5---------------7---------------3---------------------------------|
E|-3---------------5-------------------------------------------------|


[Fill 2]-Guitar 2
E|---------------------------------------------------------------------|
B|---------------------------------------------------------------------|
G|-4h7--4------------4h7--4----2--2h4-----/14\-4h7--4----7---7b---(7)r-|
D|---------------------------------------------------------------------|
A|---------------------------------------------------------------------|
E|---------------------------------------------------------------------|

E|----------------------|
B|------------(0)-------|
G|-4/7\4-\-2---0--------|
D|----------------------|
A|----------------------|
E|----------------------|


[Riff 4]-Guitar 1
E|-------1-----------5-----------3-----3-----3-----|
B|-------1-----------5-----------3-----3-----3-----|
G|-------2-----------5-----------4-----4-----4-----|
D|-------3-----------7-----------5-----5-----5-----|
A|-------3-----------7-----------5-----5-----5-----|
E|-1--1-----1--5--5-----5--3--3-----3-----3-----3--|
pm... pm..... pm...... pm pm pm


[Riff 5]-Guitar 1
riff 2 riff 2
I could swear I'm no smarter than a screw
A5 C5 D5 A5 C5 D5
Feel safe asleep inside the violent squeals
riff 2 riff 2
It's the way the milky system turns
A5 C5 D5 A5 C5 D5
In the fourth dimension hiding three more meals
A5 C5 D5 A5 C5 D5
Your creator cowers in the corner in my head


[Riff 6]-Guitar 1
E|---------------------------------------------------------------|
B|---------------------------------6---5---6---5---6---5---6-----|
G|-5---5---5---x-x-7---7---7---x-x-5---5---5---5---5---5---5-----|
D|-5---5---5---x-x-7---7---7---x-x-3---3---3---3---3---3---3-----|
A|-3---3---3---x-x-5---5---5---x-x-------------------------------|
E|---------------------------------------------------------------|


[Riff 7]-Guitar 1
E|-------------------------------------|
B|-3--------5---------8----------------|
G|-5--------7--------10----------------|
D|-5--------7--------10----------------|
A|-------------------------------------|
E|-------------------------------------|


[Fill 3]-Guitar 2
E|---------------------------------------------------------------------|
B|------------3h5---3-------------3---3h5p3----------------------------|
G|-4--------4-----------------4-------------4-\-2-p-0---2-/-4----------|
D|---------------------------------------------------------------------|
A|---------------------------------------------------------------------|
E|---------------------------------------------------------------------|

E|-7-/-10-\-7-----5----5h7------------7-/-10-\-7-----5----5h7--p--0----|
B|---------------------------------------------------------------------|
G|---------------------------------------------------------------------|
D|---------------------------------------------------------------------|
A|---------------------------------------------------------------------|
E|---------------------------------------------------------------------|


[Riff 8]-Guitar 1
E|-----|-----|-----|-----|
B|-----|-----|-----|-----|
G|-(2)-|-(5)-|-(4)-|-(4)-|Similar to Riff 4
D|--3--|--7--|--5--|--5--|
A|--3--|--7--|--5--|--5--|
E|--1--|--5--|--3--|--3--|


[Riff 9]-Guitar 1
E|-----|-----|-----|-----|
B|-----|-----|-----|-----|
G|--2--|--5--|--7--|--7--|
D|--2--|--5--|--7--|--7--|
A|--0--|--3--|--5--|--5--|
E|-----|-----|-----|-----|


[Fill 4]-Guitar 2
E|-----------------------------------------------------------------------|
B|-3---1h3p1------------------------------------------------7-------7h8--|
G|-----------2---0----------------------------------9--------------------|
D|------------------2-/-4---4/5---5-/-7-----7---7-------7-------7--------|
A|-----------------------------------------------------------------------|
E|-----------------------------------------------------------------------|

E|-----------------------------------------------------------------------|
B|-/10----10---10----10-------------------8----8----8--------/15-15b~~~r-|
G|--------------------------9--------9-----------------------------------|
D|------------------------------9----------------------------------------|
A|-----------------------------------------------------------------------|
E|-----------------------------------------------------------------------|

E|------------------|
B|-15b~~~r-15b----\-|
G|------------------|
D|------------------|
A|------------------|
E|------------------|


[Fill 5]-Guitar 2
E|--------------------------------------------------------------------------|
B|--------------------------------------------------------------------------|
G|-4-----0-----0h2----------4-/-7-\-4------0----0h2-----2--2p0-------2--4-/-|
D|--------------------------------------------------------------------------|
A|--------------------------------------------------------------------------|
E|--------------------------------------------------------------------------|

E|--------------------------------------------7-/-10--7-----5---5h7-----7---|
B|-----------3---3h5----5---5----5~/8--10-----------------------------------|
G|7-\4----------------------------------------------------------------------|
D|--------------------------------------------------------------------------|
A|--------------------------------------------------------------------------|
E|--------------------------------------------------------------------------|


[Fill 6]-Guitar 2
E|--------------------------------------------------------------------------|
B|--------------------0-h-3-p-0---------------------0-h-3-p-0-------------0-|
G|-4----(4)----(4)---------------2---4--------0----------------2h4----------|
D|--------------------------------------------------------------------------|
A|--------------------------------------------------------------------------|
E|--------------------------------------------------------------------------|

E|------------------------------------------------------------|
B|-h-3-p-0-------------------0-h-3-p-0------------------------|
G|----------2h4--4--0-------------------2h4-4-------0---------|
D|------------------------------------------------------------|
A|------------------------------------------------------------|
E|------------------------------------------------------------|


[Outro]-Guitar 3
E|(7)----------------------------------------------------------------------|
B|-8-----------------------------------------------------------------------|
G|-7------/9---7-----/12---11-----/14---12------------/9---7-----/12---11--|
D|-5-----------------------------------------------------------------------|
A|-------------------------------------------------------------------------|
E|-------------------------------------------------------------------------|

E|-------------------------------------------------------------------------|
B|-------------------------------------------------------------------------|
G|---/14---12-----------/9---7-----/12-----11--/14--14-----15-----15p14-12-|
D|-------------------------------------------------------------------------|
A|-------------------------------------------------------------------------|
E|--------------0----------------------------------------------------------|

E|----------------------------------------------------------------------3--|
B|----0------8-----7--8--7----8--(8)\--0---0----------------------------3--|
G|-14-0---0-----0---------------------/9---7----------------------------0--|
D|----------------------------------------------------------------------0--|
A|------------------------------------------------5-5-3-2h3-3p2-2p0--------|
E|------------------------------------------------------------------3------|

E|------------------------0------------------------------------------------|
B|------------------------0--3h5p3-3-/-8-8p7-8-10-10---8h10-8---8--8\---3--|
G|------------------------0------------------------------------------------|
D|-------------------------------------------------------------------------|
A|---2-3-5-3-2-0-2p0-------------------------------------------------------|
E|-------------------0-----------------------------------------------------|

E|-------------------------------------------------------------------------|
B|-3------12------13------12------13--------------------12------13---------|
G|-----------12------14------12------14-(14)b---14---12----12------14-(14)b|
D|---------------------------------------------------^^--------------------|
A|---------------------------------------------------pm--------------------|
E|-------------------------------------------------------------------------|

E|-------------------------------------------------------------------------|
B|------------------12-----------------------------------------------------|
G|---14-r--14-------------------------------12------------------------12\11|
D|---------------------14-12-12-12/14-14\12------12----12-12h14-14-14------|
A|-------------------------------------------------------------------------|
E|-------------------------------------------------------------------------|

E|-----------------------------------------------15---14---17---15---------|
B|------------------------------------15-17-15--------------------------15-|
G|-----------/14---14---14---14h16-----------------------------------------|
D|-12-12---x---0----0----0-------------------------------------------------|
A|-------------------------------------------------------------------------|
E|-------------------------------------------------------------------------|

E|------------15---14---17b--------17r-15-15p14----------14-15-14-12-14b---|
B|-15h17-15-------------------------------------15-17----------------------|
G|-------------------------------------------------------------------------|
D|-------------------------------------------------------------------------|
A|-------------------------------------------------------------------------|
E|-------------------------------------------------------------------------|

E|-12-12----12-10\-----------------------5-----5-----5-----3-----3-----2---|
B|------------------3h5b---3h5p3---3h5-------------------------------------|
G|-------------------------------4-----------------------------------------|
D|-------------------------------------------------------------------------|
A|-------------------------------------------------------------------------|
E|-------------------------------------------------------------------------|

E|--3-----3-----3-----3-----3-----3-----3-----3-----3-----5-----5-----5----|
B|-------------------------------------------------------------------------|
G|-----------4-----4-----4-----4-----4-----4-----4-----4-----4-----4-----4-|
D|-------------------------------------------------------------------------|
A|-------------------------------------------------------------------------|
E|-------------------------------------------------------------------------|

E|-5-----3-----3-----2-----3-----3-----3-----3-----10----------------------|
B|------------------------------------------------------8---7--------------|
G|----4-----4-----4-----4-----4-----4-----4-----4--------------------------|
D|-------------------------------------------------------------------------|
A|-------------------------------------------------------------------------|
E|-------------------------------------------------------------------------|


Here's the order:

Riff 1: (00:00) - 7x
Fill 1: (00:13) - 1x
Riff 2: (00:24) - 3x
Fill 2: (00:24) - 1x
Riff 3: (00:35) - 1x
Riff 4: (00:39) - 2x
Riff 5: (00:46) - 1x
Riff 6: (01:21) - 3x
Riff 7: (01:32) - 5x
Riff 2: (01:51) - 4x
Fill 3: (01:51) - 1x
Riff 8: (02:05) - 6x
Riff 9: (02:26) - 4x
Fill 4: (02:26) - 1x
Riff 6: (02:41) - 8x
Riff 3: (03:09) - 1x
Fill 5: (03:09) - 1x
Riff 2: (03:13) - 13x
Fill 6: (03:45) - 1x
Riff 3: (03:59) - 1x
Outro: (04:03) - 1x

In the Outro there are two guitars playing and I switched over from one to
another near the end.