Make your own free website on Tripod.com

WHATS MY AGE AGAIN

Blink 182






Intro:


e|-------------------------------------------------|
B|o------11---------11---------11----------11-----o|
G|----11----11---11----11---11----11----11----11---| 8X
D|--9----------------------------------------------|
A|o------------9----------------------------------o|
E|------------------------9----------11------------|


e|----------------------------------------------|
B|-----11---------11----------11----------11----|
G|--11----11---11----11----11----11----11----11-|
D|9---------------------11----------11----------|
A|-----------9----------------------------------|
E|----------------------------------------------|

|--------------------------|e
|-----11---------11--------|B
|--11----11---11----11-----|G
|9----------9--------------|D
|--------------------------|A
|--------------------------|E


Chorus:

And thats about the time she walked away.....
e|-----------------------|
B|-----------------------|
G|------6-6---8-8---4-4--| 3X
D|--4---6-6---8-8---4-4--|
A|--4---4-4---6-6---2-2--|
E|--2--------------------|


wuts my age again....
e|-----------------------------------------------------|
B|-----------------------------------------------------|
G|-------6-6---8-8-8-8-8-8-8-8---6-6-6-6-6-6-6-6-----4-|
D|-4-4---6-6---8-8-8-8-8-8-8-8---6-6-6-6-6-6-6-6-----x-|
A|-4-4---4-4---6-6-6-6-6-6-6-6---4-4-4-4-4-4-4-4-----2-|
E|-2-2-------------------------------------------------|



Verse 2:
e|------------------------------------|
B|------------------------------------|
G|-4-4-4-4-----------6-6-6-6--8-8-8-8-| 3X
D|-4-4-4-4--4-4-4-4--6-6-6-6--8-8-8-8-|
A|-2-2-2-2--4-4-4-4--4-4-4-4--6-6-6-6-|
E|----------2-2-2-2-------------------|
pm....................................


e|----------------------------------------------------|
B|----------------------------------------------------|
G|-4-4-4-4-----------6-6-6-6-6-6-6-6--4-4-4-4-4-4-4-4-| 3X
D|-4-4-4-4--4-4-4-4--6-6-6-6-6-6-6-6--4-4-4-4-4-4-4-4-|
A|-2-2-2-2--4-4-4-4--4-4-4-4-4-4-4-4--2-2-2-2-2-2-2-2-|
E|----------2-2-2-2-----------------------------------|
pm.....................................................


Reapeat Chorus



Interlude:

e|--------------------------------------------|
B|--11---------11----------11----------11-----|
G|-----11---------11----------11----------11--|
D|9---------------------11----------13--------|
A|-----------9--------------------------------|
E|--------------------------------------------|


e|-----------------|
B|o---------------o|
G|-----------------| 4X
D|---------8-9-8---|
A|o--9-9-9--------o|
E|-----------------|


e|-------------------|
B|o-----------------o|
G|---------11--------| 8X
D|-----8------8---8--|
A|o--9---9------9---o|
E|-------------------|


Repeat Chorus 4X



Comments n stuff: Clal2olV@aol.com