My Tripod Page
Make your own free website on Tripod.com

Song: Song 2
Band: Blur
Album: Blur
Tabbed By: David Stagg
http://www.geocities.com/SunsetStrip/Towers/7371/gtrtab.html

NOTE: There are two parts to this song. This first is the Intro/Verse. They
are the exact same played with a clean tone. Now, the next part, the Chorus
(if you couldn't hear), has some guitar in it. Mostly, though, it is bass
with a hell of alot of distortion.
So I am going to transcribe both parts.

Intro/Verse:
-------------------------------------------------------------------------
-------------------------------------------------------------------------
------------------------------------------------------17-17-17-17--
------------------------------------13-13-15-17-17-17-17-17--
--15-15-x-x-13-13-13-x-x--11-11-13-15-15-15-15-15--
--13-13-x-x-11-11-11-x-x---------------------------------------

Chorus:
GUITAR:
--16-16-16-16-16-16-16-16-16--
--------------------------------------------
--13-13-13-13-13-13-13-13-13--
--------------------------------------------
--------------------------------------------
--------------------------------------------

BASS: (tune low e-string down half a step)
-------------------------------------------
-------------------------------------------
------------------------------------------- repeat 4 times the play:
-2-2-2-2-0-0-0-0-5-5-7-9-9-9-9--
The riffs above and below have ALOT of distortion.
------------------------------------------
------------------------------------------
------------------------------------------
-2-2-2-2-5-5-5-5-10-10-10-10--

Fill in between Chorus and Second Verse:
GUITAR: (w/ distortion)
------------------------------
------------------------------
------------------------------
------------------------------
------------------------------
--4\1-4\1--4-4-6-8-8\--

powered by lycos
SEARCH: Tripod The Web