My Tripod Page
Make your own free website on Tripod.com

Song: Everything Zen
Band: Bush
Album: Sixteen Stone
Tabbed by: spgeise@rocketmail.com
Brought to you by Davey's Weekly Tabs. E-Mail Davey713@aol.com to join.

Verse:
E |-------------------------------------------------|
B |-------------------------------------------------|
G |---------------------------7-x--5----5-5-5--|
D |--2--2-----2--2-2-2----7-x--5----5-5-5--|
A |--2--2--2--2--2-2-2---5-x--3----3-3-3--|
E |--0--0--3--0--0-0-0-------------------------|

Chorus:
E |----------------------------------------------------------------------
B |----------------------------------------------------------------------
G |----------------------------------------------------------------------
D |--7--7---7--7--x--3--3--3--3--3---5--5--5--5--5--5--5--5-
A |--7--7---7--7--x--3--3--3--3--3---5--5--5--5--5--5--5--5-
E |--5--5---5--5--x--1--1--1--1--1---0--3--0--3--0--3--0--3-

I don't believe that Elvis is dead part:
he plays a D-Bb-G-C progression (just repeat it a couple of times)

D |-----| Bb |------| G |-----| C |-----|
|-----| |------| |-----| |-----|
|--5--| |--3--| |-----| |--5--|
|--5--| |--3--| |--5--| |--5--|
|--3--| |--1--| |--5--| |--3--|
|------| |------| |--3--| |-----|
*********************************************
E |------this part goes on for a while so bear with it----
B |--------------------------------------------------------
G |-2//////////5///////////9//////////12////////15///////17/
D |-2//////////5///////////9//////////12////////15///////17/
A |-2//////////5///////////9//////////12////////15///////17/
E |-2//////////5///////////9//////////12////////15///////17/

now you use the wammy bar
E |---------------------------------------------------------
B |--------12v----12v----12---12v----------12v----12v-12/17v
G |12v-------------------------------12v--------------------
D |---------------------------------------------------------
A |---------------------------------------------------------
E |---------------------------------------------------------

E |-------------------------------------------------------
B |-17v---17-----17----15v-------15-----15-------------15v
G |-------------------------------------------16v---------
D |-------------------------------------------16v---------
A |-------------------------------------------------------
E |-------------------------------------------------------

E |-------------------------------------------------------
B |15v-----------14v---------------13v--------------------
G |--------14v------------13v-------------12v-----12\11/12
D |-------------------------------------------------------
A |-------------------------------------------------------
E |-------------------------------------------------------
that is the first little solo

after the lines "asshole brother" there is a little fill
use the slide for it
E |------------------|
B |--12////////////--|
G |--12////////////--|
D |------------------|
A |------------------|
E |------------------|

E|---------------------------------------------------------------
B|---------------------------------------------------------------
G|-////7v----\\\\\\3-3/////12--12--12\\\\5-5----5////7-
D|-////7v----\\\\\\3-3/////12--12--12\\\\5-5----5////7-
A|-////7v----\\\\\\3-3/////12--12--12\\\\5-5----5////7-
E|-////7v----\\\\\\3-3/////12--12--12\\\\5-5----5////7-

E|----------------------------------------------------------------
B|----------------------------------------------------------------
G|--7\\\\\3---3/////12v--------\\\\\7----7\\\\3--3////12-
D|--7\\\\\3---3/////12v--------\\\\\7----7\\\\3--3////12-
A|--7\\\\\3---3/////12v--------\\\\\7----7\\\\3--3////12-
E|--7\\\\\3---3/////12v--------\\\\\7----7\\\\3--3////12-

E|----------------------------------------------------------
B|----------------------------------------------------------
G|12-12\\\\\5--5////7--7\\\\\3--3////12---12--3/////12-12v3
D|12-12\\\\\5--5////7--7\\\\\3--3////12---12--3/////12-12v3
A|12-12\\\\\5--5////7--7\\\\\3--3////12---12--3/////12-12v3
E|12-12\\\\\5--5////7--7\\\\\3--3////12---12--3/////12-12v3

then it goes into the solo
E|----------------------------------------------------------
B|----------------------------------------------------------
G|-4--0---4/5-----3v----/4---4/5----0---0---6/7v----7v-7h9v
D|----------------------------------------------------------
A|----------------------------------------------------------
E|----------------------------------------------------------

E|-----------15---14---12-----------------------------------
B|------------------------15----12---10----10h12v--12\11\10-
G|9v---9v---------------------------------------------------
D|----------------------------------------------------------
A|----------------------------------------------------------
E|----------------------------------------------------------

E|--------------------------------------------------------
B|-10--10--10---10-10-------------------------------------
G|---------------------9/12v---5/////10/////15v----6/////9
D|-----------------------------5/////10/////15v----6/////9
A|-----------------------------5/////10/////15v----6/////9
E|-----------------------------5/////10/////15v----6/////9

E |----------------|
B |----------------|
G |--////12////15--|
D |--////12////15--|
A |--////12////15--|
E |--////12////15--|