My Tripod Page
Make your own free website on Tripod.com

Song: Oddity
Band: Coal Chamber
Album: Coal Chamber
Tabbed by: Davey713@aol.com
Brought to you by Davey's Weekly Tabs. E-Mail Davey713@aol.com to join.

Riff 1:
--------------------------------
--------------------------------
--------------------------------
-0-0-0-2--0-0-0-2--0-2---
-0-0-0-2--0-0-0-2--0-2---
-0-0-0-2--0-0-0-2--0-2---

Verse:
-------
-------
-------
-00--
-00--
-00--

Riff 2: (Chorus)
---------------------
---------------------
--------------------- ^ = hammer-on
---------------------
-0^2--0^2--0^2--
-0^2--0^2--0^2--

Fill 1:
-------4--
-------2--
-----------
-----------
-0-0-----
-0-0-----

Riff 3:
----------------
----------------
----------------
-0-2-1-2-0--
-0-2-1-2-0--
-0-2-1-2-0--

Riff 4:
------------------
------------------
------------------
-3-2-0-2-1-2--
-3-2-0-2-1-2--
-3-2-0-2-1-2--

Song Order:
Riff 1: 12x
Verse: 8x
Riff 1: 8x
Verse: 8x
Riff 1: 8x
Riff 2: 8x
Fill 1
Riff 3: 8x
Riff 4: 4x
Riff 1: 8x
Riff 2: 8x
Riff 1: 1x