My Tripod Page
Make your own free website on Tripod.com

Song: 4 + 20
Band: Crosby, Stills, Nash, Young:
Album: ????
Tabbed By: Mark Ferris
Brought to you by Davey's Weekly Tabs. E-Mail Davey713@aol.com to join.

6th-5th-4th-3rd-2nd-1st
Guitar Tuning: D# A# D# D# A# D#

Intro: E

D#
|----------7--------------|-----------5-----------|
A#
|----------------9--------|-----------------7-----|
D#
|---0---------------------|---0-------------------|
D#
|---0---------------------|---0-------------------|
A#
|-------------------------|-----------------------|
D# |---0---------------------|---0-------------------|




D# |----------4--------------|-----------4-----------|
A# |----------------5--------|---2--0----------------|
D# |---0---------------------|-----------------------|
D# |---0---------------------|-----------------------|
A# |-------------------------|-----------------------|
D# |---0---------------------|-----------0-----------|




G A

D#|--0------3--| D#|--0------5---|
A#|--0------3--| A#|--0------5---|
D#|--3------3--| D#|--5------5---|
D#|--0-(OR)-3--| D#|--0-(OR)-5---|
A#|--0------3--| A#|--0------5---|
D#|--3------3--| D#|--5------5---|



E

D#|---------10---------10---------10----------|
A#|--------------12---------12---------12-----|
D#|---0---------------------------------------|
D#|---0---------------------------------------|
A#|-------------------------------------------|
D#|---0----------------------------0----------|

E
Four and twenty years ago, I come into this life,

The son of a woman and a man who lived in strife.
G A E
He was tired of bein' poor,
G A E
And he wasn't into sellin' door to door,
G A E
And he worked like the devil to be more.


Guitar/No Singing: E - - - .


E
A different kind of poverty now upsets me so;
E

Night after sleepless night, I walk the floor and I want to know,
G A E
Why am I so alone,
G A E
Where is my woman, can I bring her home,
G A E
Have I driven her away, Is she gone,


Guitar/No Singing: E - - - .


E
Morning comes the sunrise and I'm driven to my bed.
E

I see it is empty and there's devils in my head.
G A E
I embrace the many-colored beast.
G A E

I grow weary of the torment can there be no peace.
G A E
And I find myself just wishing that my life would simply cease.

Song: 4 Leaf Clover
Band: Abra Moore
Album: ????
Tabbed by: Andy Smith (andyns@juno.com)
Brought to you by Davey's Weekly Tabs. E-Mail Davey713@aol.com to join.

Intro- G A D (all powerchords)
Chorus G A D
I've been thinkin' it over,
and it's all just a little too much
see I got a 4 leaf clover,
and it's gotta bring a little luck.
Verse 1 - G A D (palm muted)
So I let go of all our big deals
I let go of the bitter chain
I seen the girl in the pretty white picture
it's never really what it seems. yeah
Bridge F#m G D (pick top to bottom)

Verse 2 G A D
Well my mind is always racing
My body's on overload
Cause you got my heart in the middle of a feelin'
I got no place to go.
Bridge F#m G D
Yeah, oh
yeah, oh
Chorus
Post Chorus- E G A
I know then,
That I go nowhere to go,
that I'm alright
Bridge
Solo over verse chords
Post- Chorus E G A
My love then,
has got the best of me
and it's alright
Bridge
Chorus (x2)

Song: Push
Band: Matchbox 20
Album: Yourself or Someone Like You
Tabbed by: Phil Herring (paherr@worldnet.att.net)
Brought to you by Davey's Weekly Tabs. E-Mail Davey713@aol.com to join.

Tune down 1/2 step
(low to high) Eb, Ab, Db, Gb, Bb, Eb

Intro:
Guitar 1 (w/slight distortion)
-------3----3----3---------0----0--0--0----0----0----0------0-----0-----
-------3----3----3---------3----3--3--0----0----0----0------0h1---0-----
-------0----0----0---------2----2--2--0----0----0----0------0-----0-----
-------0----0----0---------0----0--0--2----2----2----2------------------
-------------------------------------------2----2----2----2---3--------------
--3-------------------2-------------------0----0----0----0------------------

-------3----3----3---------0----0--0--0----0----0----0------0-----0-----
-------3----3----3---------3----3--3--0----0----0----0------0h1---0-----
-------0----0----0---------2----2--2--0----0----0----0------0-----0-----
-------0----0----0---------0----0--0--2----2----2----2------------------
--------------------------------------2----2----2----2--3---------------
--3-------------------2---------------0----0----0----0------------------

1st Verse:
Guitar 1 (Rythem Figure 1)
--3--------------3--------------0---------------------0-----0-----------
--3--------------3--------------0---------------------0h1---0-----------
--0--------------2--------------0---------------------0-----0-----------
--0--------------0--------------2---------------------------------------
--X--------------0--------------2-----------------3---------------------
--3--------------2--------------0---------------------------------------
(end Rythem Figure 1)
--3--------------3--------------0---------------------0-----0-----------
--3--------------3--------------0---------------------0h1---0-----------
--0--------------2--------------0---------------------0-----0-----------
--0--------------0--------------2---------------------------------------
--X--------------0--------------2-----------------3---------------------
--3--------------2--------------0---------------------------------------

Guitar 1 plays Rythem Figure 1 once

Guitar 1
--0------------0--------------------0----------------0------------------
--3--------------------3----------------3----------------3--------------
--2------------------------2----------------2----------------0----------
--0---------------------------------------------------------------------
------------------------------------------------------------------------
------------------------------------------------------------------------
Guitar 2 (w/distortion)
--0-----------------------------0---------------------------------------
--3-----------------------------3---------------------------------------
--2-----------------------------2---------------------------------------
--0-----------------------------0---------------------------------------
--0-----------------------------0---------------------------------------
------------------------------------------------------------------------

Guitar 1
----------------0-------------------------------------------------------
--3-------------3----------------------------3--------------------------
--0---0---------------------------------0----------0--------------------
--2--------2-----------------------4-------------------4----------------
--3---------------------------------------------------------5-----------
------------------------------------------------------------------------
Guitar 2
------------------------------------------------------------------------
--3-----------------------------3---------------------------------------
--0-----------------------------0---------------------------------------
--2-----------------------------2---------------------------------------
--3-----------------------------3---------------------------------------
------------------------------------------------------------------------
Guitar 3 (w/distortion)
----------------------------10------------------------------------------
-----------------------7h8----------------------------------------------
------------------------------------------------------------------------
------------------------------------------------------------------------
------------------------------------------------------------------------
------------------------------------------------------------------------

Guitar 1
--0---------0--------------------0-----------------0--------------------
--3----------------3-----------------3-----------------3----------------
--2--------------------2-----------------2-----------------0------------
--0---------------------------------------------------------------------
------------------------------------------------------------------------
------------------------------------------------------------------------
Guitar 2
--0---------------------------0-----------------------------------------
--3---------------------------3-----------------------------------------
--2---------------------------2-----------------------------------------
--0---------------------------0-----------------------------------------
--0---------------------------0-----------------------------------------
------------------------------------------------------------------------

Guitar 1
-------3---0----0------------------------------------2---2h3----0-------
--3-------------3---------3--------------------------3---3------3-------
--0-----------------------0--------------------------2---2------2-------
--2-----------------------2--------------------------0---0------0-------
--3-----------------------3---------------------------------------------
------------------------------------------------------------------------
Guitar 2
-----------------------------------------------------2---3------0-------
--3------------------3----3--3-----------------------3---3------3-------
--0------------------0----0--0-----------------------2---2------2-------
--2------------------2----2--2-----------------------0---0------0-------
--3------------------3----3--3------------------------------------------
------------------------------------------------------------------------
Guitar 3
------------10------------10--------------------------------------------
------8--8-----------7h8------------------------------------------------
------------------------------------------------------------------------
------------------------------------------------------------------------
------------------------------------------------------------------------
------------------------------------------------------------------------

Chorus:
Guitars 1 & 2
--3------3----3--3--0--2--2--2--X--X--0----0--0--0--0--2--2----2---X--X-
--3------3----3--3--3--3--3--3--X--X--1----1--1--1--3--3--3----3---X--X-
--0------0----0--0--2--2--2--2--X--X--0----0--0--0--2--2--2----2---X--X-
--0------0----0--0--0--0--0--0--X--X--2----2--2--2--0--0--0----0---X--X-
--2------2----2--2--------------------3----3--3--3----------------------
--3------3----3--3--------------------3----3--3--0----------------------

--3------3----3--3--0--2--2--2--X--X--0----0--0--0--0--2--2----2---X--X-
--3------3----3--3--3--3--3--3--X--X--1----1--1--1--3--3--3----3---X--X-
--0------0----0--0--2--2--2--2--X--X--0----0--0--0--2--2--2----2---X--X-
--0------0----0--0--0--0--0--0--X--X--2----2--2--2--0--0--0----0---X--X-
--2------2----2--2--------------------3----3--3--3----------------------
--3------3----3--3--------------------3----3--3--3----------------------

Guitars 1 & 2 ##
--0----0--X----X--X--2---2---X----X--X--0--0-----------0--2--2--2---2-0-
--0----0--X----X--X--3---3---X----X--X--1--1-----------3--3--3--3---3-3-
--0----0--X----X--X--2---2---X----X--X--0--0-----------2--2--2--2---2-2-
--2----2--X----X--X--0---0---X----X--X--2--2-----------0--0--0--0---0-0-
--2----2--X----X--X---------------------3--3----------------------------
--0----0--X----X--X---------------------3--3----------------------------
Guitar 3
------------------------------------------------------------------------
------------------------------------------------------------------------
----------14-14-14-14--------14-14-14-14------14-14-14-14---14-14-14-14-
----------14-14-14-14--------14-14-14-14------14-14-14-14---14-14-14-14-
----------12-12-12-12--------12-12-12-12------12-12-12-12---12-12-12-12-
------------------------------------------------------------------------

Guitars 1 & 2 #
--0----0--X----X--X--0--0--X----X--X--0--0--0----0----2---2----2---2----
--0----0--X----X--X--3--3--X----X--X--1--1--1----1----3---3----3---3----
--0----0--X----X--X--2--2--X----X--X--0--0--0----0----2---2----2---2----
--2----2--X----X--X--0--0--X----X--X--2--2--2----2----0---0----0---0----
--2----2--X----X--X-------------------3--3--3----3----------------------
--0----0--X----X--X-------------------3--3--3----3----------------------
Guitar 3 Rythem Fill 1_____________________
------------------------------------------------------------------------
------------------------------------------------------------------------
---------14-14-14-14-------14-14-14-14----------14-14-14-14-14-14-14-14-
---------14-14-14-14-------14-14-14-14----------14-14-14-14-14-14-14-14-
---------12-12-12-12-------12-12-12-12----------12-12-12-12-12-12-12-12-
------------------------------------------------------------------------
Guitar 4
-----------------------------------------------0-------------5----------
-------------------------------------------1-------1---/7---------------
---------------------------------------0--------------------------------
------------------------------------------------------------------------
------------------------------------------------------------------------
------------------------------------------------------------------------


Guitar Solo:
Guitars 1 & 2 play Rythem Figure 1
Guitar 4
-------------------------------------------------------------3-3h5--3~~-
----------3------------------------------3--------5~~~~~~~~~------------
--------------2-2h4--------------------------2h4------------------------
--5----5---------------5-----------8--5---------------------------------
--------------------------5h7--5----------------------------------------
------------------------------------------------------------------------

2nd Verse:
Guitar 3 (Riff A) (Guitars 1 & 2 play Rythem Figure 1 twice)
----5-------------5------5----------5-----------------------------------
--------8------8-----------8---------------8--------------8-------------
-----------7------------------7-----------------7---7h9-----------------
------------------------------------------------------------------------
------------------------------------------------------------------------
------------------------------------------------------------------------
Guitar 4
(3)~~~~~~~~~~~~~~~~~~~~~~~~~~~~~~~~~~~~~~~~~~~~-------------------------
------------------------------------------------------------------------
------------------------------------------------------------------------
------------------------------------------------------------------------
------------------------------------------------------------------------
------------------------------------------------------------------------

Guitar 3 (end Riff A)
--------5---------------5-----5--------5------------8p7-----------------
-(8)---------8------8-----------8----------8-------------8--------------
----------------7------------------7----------7-------------------------
------------------------------------------------------------------------
------------------------------------------------------------------------
------------------------------------------------------------------------

Guitar 3 plays Riff A

Repeat Chorus until #

Guitars 1 & 2 (Guitar 3 plays Rythem Fill 1)
--0--0--0--0----2---2---2---2-------------------------------------------
--1--1--1--1----3---3---3---3-------------------------------------------
--0--0--0--0----2---2---2---2-------------------------------------------
--2--2--2--2----0---0---0---0-------------------------------------------
--3--3--3--3------------------------------------------------------------
--3--3--3--3------------------------------------------------------------

Bridge:
Guitars 1 & 2
--0------0--------0----0-------0----0--0--0-------0---------------2-----
--0------0--------3----3-------3----3--3--1-------1---------------3-----
--0------0--------2----2-------2----2--2--0-------0---------------2-----
--2------2--------0----0-------0----0--0--2-------2---------------0-----
--2------2--------X----X-------X----X--X--3-------3-------------------0-
--0------0--------2----2-------2----2--2--3-------3---------------------

--------0-----0----0--0--0--0----0----0--0--0----0----2--2--2--0------0-
--------0-----0----0--3--3--3----3----3--3--1----1----3--3--3--0------0-
--------0-----0----0--2--2--2----2----2--2--0----0----2--2--2--0------0-
--------2-----2----2--0--0--0----0----0--0--2----2----0--0--0--2------2-
--------2-----2----2--X--X--X----X----X--X--3----3-------------2------2-
--3--2--0-----0----0--2--2--2----2----2--2--3----3-------------0------0-

----0--0--0--0----0----0--0--0----0----0----0----2----2----2----2-------
----0--3--3--3----3----3--3--1----1----1----1----3----3----3----3-------
----0--2--2--2----2----2--2--0----0----0----0----2----2----2----2-------
----2--0--0--0----0----0--0--2----2----2----2----0----0----0----0-------
----2--X--X--X----X----X--X--3----3----3----3---------------------------
----0--2--2--2----2----2--2--3----3----3----3---------------------------

Repeat Chorus until ##

Guitars 1 & 2
--0--0--X-----X--X--0----2--X----X--X--0--0--0----0----2--2----2----2---
--0--0--X-----X--X--3----3--X----X--X--1--1--1----1----3--3----3----3---
--0--0--X-----X--X--2----2--X----X--X--0--0--0----0----2--2----2----2---
--2--2--X-----X--X--0----0--X----X--X--2--2--2----2----0--0----0----0---
--2--2--X-----X--X---------------------3--3--3----3---------------------
--0--0--X-----X--X---------------------3--3--3----3---------------------
Guitar 3
------------------------------------------------------------------------
------------------------------------------------------------------------
--------14-14-14-14--------------------------14-14-14-14--14-14-14-14---
--------14-14-14-14--------------------------14-14-14-14--14-14-14-14---
--------12-12-12-12--------------------------12-12-12-12--12-12-12-12---
------------------------------------------------------------------------

Outro:
Guitars 1 & 2
--3----3------3----3--3---0----0-----0------0-0--0------0--------0------
--3----3------3----3--3---3----3-----3------3-3--0------0--------0------
--0----0------0----0--0---2----2-----2------2-2--0------0--------0------
--0----0------0----0--0---0----0-----0------0-0--2------2--------2------
--X----X------X----X--X---X----X-----X------X-X--2------2--------2------
--3----3------3----3--3---2----2-----2------2-2--0------0--------0------
Guitar 3
-15-15-15-15-15-15-15-15-14-14-14-14-14-14-14-14-15-15-15-15-15-15-15---
-15-15-15-15-15-15-15-15-15-15-15-15-15-15-15-15-17-17-17-17-17-17-17---
-16-16-16-16-16-16-16-16-14-14-14-14-14-14-14-14-16-16-16-16-16-16-16---
------------------------------------------------------------------------
------------------------------------------------------------------------
------------------------------------------------------------------------

Guitars 1 & 2 **
-----0--0-0-0-0-0-0-0-0-0--|----3---------------------------------------
-----0--1-1-1-1-1-1-1-1-1--|----3---------------------------------------
-----0--0-0-0-0-0-0-0-0-0--|----0---------------------------------------
-----2--2-2-2-2-2-2-2-2-2--|----0---------------------------------------
-----2--3-3-3-3-3-3-3-3-3--|----X---------------------------------------
-----0--3-3-3-3-3-3-3-3-3--|----3---------------------------------------
Guitar 3 **
-15-15---------------------|--------------------------------------------
-17-17---------------------|--------------------------------------------
-16-16-14-14-14-14/16------|--------------------------------------------
-----------------------17--|---17---------------------------------------
---------------------------|--------------------------------------------
---------------------------|--------------------------------------------
** repeat this row and last one 4 times
KEY
b = bend
p = pull-off
h = hammer-on
X = mute
~ = vibrate
/ = slide up
\ = slide down

powered by lycos
SEARCH: Tripod The Web