My Tripod Page
Make your own free website on Tripod.com

Song: Crash Into Me
Band: Dave Matthews' Band
Album: Crash
Tabbed by: David Stagg
http://www.geocities.com/SunsetStrip/Towers/7371/gtrtab.html

Intro/verse:
------------------------------------
----5--5--5------5--5--5-------
----4--4--4------4--4--4-------
----2--2--x------2--2--x-------
----4--0--2------x--0--2-------
---------------0---4--------0----

Chorus: "Crash into me...."
---------------------------------
-------------------3------------
--------------1---2------------
--------------2---0------------
--------------2---x------------
---4--5--7--0---2------------
David, E-Zine Host