My Tripod Page
Make your own free website on Tripod.com

Song: Touch, Peel and Stand
Band: Days of the New
Album: ????
Tabbed by: Davey713@aol.com
Brought to you by Davey's Weekly Tabs. E-Mail Davey713@aol.com to join.

Dropped D

Main Riff / Chorus:
-----------------------------------------------------------
-----------------------------------------------------------
-----------------------------------------------------------
-5/7-7-7-7-5/7-7-7----------------------------------
-3/5-5-5-5-3/5-5-5--3/5-5-5-5-5-3/5-5-5-5---
---------------------------3/5-5-5-5-5-3/5-5-5-5---

------------------------------------------------------------------
------------------------------------------------------------------
------------------------------------------------------------------
----------------------------3/5-5-5-5-------------------------
--0-3-3-0-3-3-3-3-3--3/5-5-5-5-3-0-0-5p3p0-------
--0-3-3-0-3-3-3-3-3----------------3-0-0-5p3p0-------

End of Chorus:
------------------------------------------------------------------
------------------------------------------------------------------
------------------------------------------------------------------
-4/5-5-5-5----------------------------------------------------
-2/3-3-3-3-3-0-0-5p3p0-0----x--x--x------------------
---------------3-0-0-5p3p0-0----x--x--x------------------

Verse is just basically bass.
Fill before Chorus is a G# G F

Repeat Chorus

Bridge:
------------------------------------------------------------------------------
-------
------------------------------------------------------------------------------
-------
------------------------------------------------------------------------------
-------
------------------------------------------------------------------------------
-------
--3h5p3p0--3h5p0--0-5p3p0--3h6p3p0--3h5p0--3h5p3p0--0---
--3h5p3p0--3h5p0--0-5p3p0--3h6p3p0--3h5p0--3h5p3p0--0---