My Tripod Page
Make your own free website on Tripod.com

Song: Teething
Band: deftones
Album: "The Crow: City of Angels" soundtrack
Tabbed by: Deffy0024@aol.com
http://www.geocities.com/SunsetStrip/Towers/7371/gtrtab.html

Dropped D

Riff 1 (intro)
e)-------------------------------
b)-------------------------------
g)-------------------------------
d)-------------------------------
a)----7p6h7p6--6p5-------
d)----7p6h7p6--6p5----(9)

Riff 2 (intro & chorus)
e)-------------------------------------
b)-------------------------------------
g)-------------------------------------
d)-------------------------------------
a)----3p2--xx--3p2--xx--3p2-- (repeat until verse)
d)----3p2--xx--3p2--xx--3p2--

Riff 3 (verse):
a)----5p4-5p4-4p3-- (repeat this a few times)
d)----5p4-5p4-4p3--

Riff 4 (bridge):
g)-------------------------------------------
d)-----------9--9h11--9-9h11-9h11-- (reapet a few times)
a)-----------7--7h9----7-7h9---7h9---
d)-----0-0----------------------------------

Riff 5 (end of bridge)
d)-----9h10-xx--9h10-xx-9h10-- (repeat a few more times)
a)-----7h8--xx--7h8--xx--7h8----
d)----------------------------------------