My Tripod Page
Make your own free website on Tripod.com

Song: Everything to Everyone
Band: Everclear
Album: So Much for the Afterglow
Tabbed by: Davey713@aol.com
Brought to you by Davey's Weekly Tabs. E-Mail Davey713@aol.com to join.

Intro (sirens):
-------------------------------------------------------------------
-19-----19-----------19-----19------19-----------19-------
-----16-----16--16------16------16-----16--16------16--
-------------------------------------------------------------------
-------------------------------------------------------------------
-------------------------------------------------------------------

Verse (bass):
-------------------------------------
------------------------------------- (repeat)
----------7-7-7----------4-4-4--
--7-7-7----------4-4-4----------

Chorus:
"You do what you do..."
---------------------------------------
---------------------------------------
---------------------------------------
----------9-9-9-----------6-6-6---
-9-9-9--7-7-7--6-6-6--4-4-4---
-7-7-7-----------4-4-4-------------

Post-Chorus:
"Yeah you do it again..."
-----------------------------------------
-----------------------------------------
-----------------------------------------
-----------------------------------------
-7-7-7--7-7--7---9-9-9--9-9--9--
-5-5-5--5-5--5---7-7-7--7-7--7--

For next verse play Chorus, but palm-muted.

Beginning to bridge (something like this, improvise):
-------------------------
-14-----16p14-------
-----16-----------16--
-------------------------
-------------------------
-------------------------

For fade out part at the end and after the Post-Chorus, strum G#5 over and
over.

powered by lycos
SEARCH: Tripod The Web