My Tripod Page
Make your own free website on Tripod.com
Last Cup Of Sorrow-Faith No More

Figure 1: (opening chords; play twice)
E---------------
B---------------
G---------------
D-5-5-------2-
A-5-5-x-x-2-
E-3-3-x-x-0-
(just bass, drums, vocals)

Figure 2:
E---------------------------------------------
B---------------------------------------------
G-0-0-0-0-0-0-0--0-0-0-0h2-0-0-0-- (repeat twice)
D---------------------------------------------
A---------------------------------------------
E---------------------------------------------
Figure 1 again; twice

Chorus:
E-0---------0----------0-
B-0---------0----------0-
G-8---------6----------4-
D-9---------7----------5-
A-9---------7----------5-
E-7---------5----------3-

Figure 3:
(let ring)
E-----------
B-----------
G-----0----0
D---2----2--
A-2---------
E-----------
(just vocals and keyboards)
Figure 2 again...
Figure 1 again...
Chorus again.....
Figure 1 a few times...
Figure 3 over and over until fade...