My Tripod Page
Make your own free website on Tripod.com

Song: Hey Man, Nice Shot
Band: Filter
Album: Short Bus
Tabbed by: David Stagg
http://www.geocities.com/SunsetStrip/Towers/7371

Dropped D tuning
Loud effects

Intro/Verse:
Bass line and guitar w/effects & echo:
e|----------------------------------------------------------------------------
------------|
B|----------------------------------------------------------------------------
------------|
G|-o--------------------------------------------------------------------------
--------o-|
D|-o--------------------------------------------------------------------------
--------o-|
A|----------------------------------------------------------------------------
------------|
D|---0-0-0-0-0-0-0-0-3-3-3-3-3-3-3-5-5-5-5-5-5-5-5-5-6-6-5-5-3-3----|

Play the same thing above on the Low D string of a bass. (Bass in
Dropped D)

Chorus/Loud Parts:
e|----------------------------------------------------------------------------
------------|
B|----------------------------------------------------------------------------
------------|
G|-o--------------------------------------------------------------------------
--------o-|
D|-o--------------------------------------------------------------------------
--------o-|
A|---10h12--10h12--10p9--10p9--5h7--5h7--5p3--5p3------------------|
D|---10h12--10h12--10p9--10p9--5h7--5h7--5p3--5p3------------------|

Solo/Noise:
E|----------------------------------------------------------------------------
---|
B|----------------------------------------------------------------------------
---|
G|----------------------------------------------------------------------------
---|
D|------10--12----10--9-----10--12----10--9----5--7----5--4---------|
A|----------------------------------------------------------------------------
---|
E|----------------------------------------------------------------------------
---|