My Tripod Page
Make your own free website on Tripod.com

Song: Everlong
Band: Foo Fighters
Album: the Colour and the Shape
Tabbed by: Blaze

[Riff 1]-1x
E|---------------------------------------------------------------
B|---------------------------------------------------------------
G|---------------------------------------------------------------
D|------11----11-11----11-------11----11-11-11----------11----11-
A|-------9-----9--9-------9--------9-------9--9--9-------------9------9-
E|-0--0-----0--------0------0--0-----0----------------0--9--9-----9----

E|---------------------------------------------------------------
B|---------------------------------------------------------------
G|---------------------------------------------------------------
D|-11----11-------11-11-11------------7------------7------------11---
A|--9-----9----------9--9--9-------------5-------------5-------------9---
E|-----9-----9--9---------------0--5--5-----5--5--5-----5~/9--9-----9

E|-------------------------------------
B|-------------------------------------
G|-------------------------------------
D|----11----------11----------11----
A|------9-----------9-----------9----
E|--9--9-----9--9--9-----9--9--9-----9-

[Riff 2]-1x
E|---------------------------------------------------------------
B|---------------------------------------------------------------
G|---------------------------------------------------------------
D|-------------------------------------------------------7---------7~
A|-0------------------0--0--9------------------9--0--5---------5~
E|-4------------------4--0--9------------------9--0--5---------5~

E|-------------------------------------------------
B|-------------------------------------------------
G|-------------------------------------------------
D|/11----11----11-11-11-11-11-11-11-11-11-11-11-11-
A|/-9-----9------9---9---9---9---9--9--9---9---9---9---9---9-
E|/-9-----9------9---9---9---9---9--9--9---9---9---9---9---9-

[Riff 3]-1x
E|----------------------------------------------------------------
B|----------------------------------------------------------------
G|--9----9----9--11--9--9--9------9----9--11--9---9--9-----9------9-11--9-
D|-11---11--11-11-11-11-11---11---11-11-11-11-11---11---11-11-11-
A|--9----9----9---9--9----9--9-----9----9---9--9----9--9-----9------9--9--9-
E|----------------------------------------------------------------

E|----------------------------------------------------------------
B|----------------------------------------------------------------
G|-9--9----9----9-11--9--9-------6----6----6----6----9----9----9----9--
D|11-11-11---11-11-11-11-----7----7----7----7---11---11---11-11--
A|-9--9----9----9--9--9--9--5----5----5----5----9----9----9-----9--
E|----------------------------------------------------------------

E|--------------------
B|-------------------- **************************************
G|--9----9-----9--11--9- * The stumming for this riff changes *
D|-11---11---11-11-11- * a bit in some parts of the song. *
A|--9----9-----9---9---9- **************************************
E|--------------------

[Riff 1]-2x

[Riff 3]-1x

[Riff 1]-2x

[Riff 3]-1x

[Riff 4]-1x
E|---------------------------------------------
B|---------------------------------------------
G|-6--6--6--7--7--7--9--9--9-11-11-11-11-12-14-
D|---------------------------------------------
A|-4--4--4--5--5--5--7--7--7--9--9--9--9-10-12-
E|---------------------------------------------

[Riff 5]-1x
E|-------------------------
B|-------------------------
G|-------------------------
D|-7----7--7----7--7--7----
A|-7----7--7----7--7--7--0-
E|-7----7--7----7--7--7--0-

[Riff 4]-1x

[Riff 5]-1x

[Riff 4]-1x

[Riff 6]-2x
E|---------------------------------------------------------------
B|-------------------------------------------------------------3----3--3---
G|-------------------------------------------------------------2----2--2---
D|-9----9--9----9--9--9--0--5----5--5----5--5--5--0--0----0--0---
A|-9----9--9----9--9--9--0--5----5--5----5--5--5--0--0----0--0---
E|-9----9--9----9--9--9--0--5----5--5----5--5--5--0--0----0--0---

E|---------------------------------
B|-3--3--3--3--3--3--3--3--3--3--3-
G|-2--2--2--2--2--2--2--2--2--2--2-
D|-0--0--0--0--0--0--0--0--0--0--0-
A|-0--0--0--0--0--0--0--0--0--0--0-
E|-0--0--0--0--0--0--0--0--0--0--0-

[Riff 7]-1x
E|---------------------------------------------------------------
B|-------------------------------------------------------------3----3--3---
G|-------------------------------------------------------------2----2--2---
D|-9----9--9----9--9--9--0--5----5--5----5--5--5--0--0----0--0---
A|-9----9--9----9--9--9--0--5----5--5----5--5--5--0--0----0--0---
E|-9----9--9----9--9--9--0--5----5--5----5--5--5--0--0----0--0---

E|----------------------------------
B|-3--3--3--------------------------
G|-2--2--2--------------------------
D|-0--0--0--7----7--7----7--7--7--7-
A|-0--0--0--7----7--7----7--7--7--7-
E|-0--0--0--7----7--7----7--7--7--7-

[Riff 8]-1x
E|------------------------------------------------
B|-8--8--8--8--8--8--8--8--8--8--8--8--8--8--8--8-
G|-7--7--7--7--7--7--7--7--7--7--7--7--7--7--7--7-
D|-5--5--5--5--5--5--5--5--5--5--5--5--5--5--5--5-
A|-5--5--5--5--5--5--5--5--5--5--5--5--5--5--5--5-
E|-5--5--5--5--5--5--5--5--5--5--5--5--5--5--5--5-

[Riff 3]-1x

[Riff 1]-2x

[Riff 4]-1x

[Riff 5]-1x

[Riff 4]-1x

[Riff 5]-1x

[Riff 4]-1x

[Riff 6]-2x

[Riff 7]-1x

[Riff 8]-1x

[Riff 1]-1x

[Riff 9]-1x
E|-------------------------------------------------------------------
B|-------------------------------------------------------------------
G|--9-------------------------9---9--11-------------------------11----
D|-11------------------------11--11--11------------------------11----
A|--9-------------------------9---0---9-------------------------9--0-
E|--0-------------------------0---0---9-------------------------9--0-

E|-------------------------------------------------------------------
B|-----------------------|=========Repeat========|-
G|-------------------------------------------------------------------
D|-7--7--7--7--7--7--7--7-11-11-11-11-11-11-11-11--
A|-5--5--5--5--5--5--5--5--9--9---9---9---9---9---9--9---
E|-5--5--5--5--5--5--5--5--9--9---9---9---9---9---9--9---

[Riff 4]-3x

[Riff 6]-2x

[Riff 7]-1x

[Riff 8]-2x