tabguy's place on the internet
Make your own free website on Tripod.com
.
Rancid- New Dress
#----------------------------------PLEASE
NOTE---------------------------------#
#This file is the author's own work and represents their
interpretation of the #
#song. You may only use this file for private study, scholarship,
or research. #
#------------------------------------------------------------------------------#
"New Dress" by Rancid
from the 1998 album "Life Won't Wait"
written by Tim Armstrong and Lars Frederiksen
tabbed by Penske

F# G# A E B D
e|---X----X----X----X----X----X----|
B|---X----X----X----X----X----X----|
G|---X----X----X----9----4----7----|
D|---4----6----7----9----4----7----|
A|---4----6----7----7----2----5----|
E|---2----4----5----X----X----X----|


INTRO:
Play 2X

e------------------------------------------
B--0-3-0-5-0-3-0-5-0-5-0-3-0-5-0-3-0-5-0-5-
G------------------------------------------
D------------------------------------------
A------------------------------------------
E------------------------------------------

e------------------------------------------
B--0-4-0-7-0-4-0-7-0-7-0-4-0-7-0-7-0-7-0-7-
G------------------------------------------
D------------------------------------------
A------------------------------------------
E------------------------------------------
Oh no, no no Yeah!

VERSE:
A G#
With a gleaming success with the different tribes
E D
Religious indifference mixed between the lines
F#
Territorial company they legitimize
B
Prosecution deformed enterprised now
A G#
The unity's gone apart from it all
E D
The problem is spreading international
F#
Like Ireland's Belfast it's going to be
B
A brand new key


CHORUS:
E
Working class girl puts her money to the test
B
She's got a new dress, she's gonna look her best
E
Yugoslavia's been blown to bits... yeah
B
She's got a new dress, she's looking to the West


VERSE:
A G#
Well entertain the idea of a peace on earth
E D
So donít slow down, takes the unseen birth
F#
In a world which has seen the citizens die
B
While the innocent children play near fire now
A G#
When i look through and see evidence
E D
Another truth with permanence
F#
The time for civil war is the sooner i live
B
The chivalrous ones will never represent it

BRIDGE:
Play 2X

e------------------------------------------
B--0-3-0-5-0-3-0-5-0-5-0-3-0-5-0-3-0-5-0-5-
G------------------------------------------
D------------------------------------------
A------------------------------------------
E------------------------------------------

e------------------------------------------
B--0-4-0-7-0-4-0-7-0-7-0-4-0-7-0-7-0-7-0-7-
G------------------------------------------
D------------------------------------------
A------------------------------------------
E------------------------------------------

CHORUS:
E
Working class girl puts her money to the test
B
She's got a new dress, she's gonna look her best
E
Yugoslavia's been blown to bits... yeah
B
She's got a new dress, she's looking to the West

VERSE:
A G#
A candid people for a deity
E D
The methods of separatists are dastardly
F#
Try to cleanse the hands of the murdering
B
The appendage of guilt is lingering
A G#
Shadows of soldiers lay nearby
E D
The dead ones finally reach a compromise
F#
The consumption of war lies in Bosnia
B

powered by lycos
SEARCH: Tripod The Web