tabguy's place on the internet
Make your own free website on Tripod.com
.
Blink 182-Adam's Song
Artist: Blink 182
Album: Enema Of The State
Song: Adam's Song
tabbed by Howard Saubert (probly@netscape.net)


This is my version of Adam's song. I tabbed it slightly differently than the other person that tabbed it because they had it in Drop D tuning. It is much easier to play in standard tuning so this is how you play it in standard tuning.

Intro (Repeat twice)
e------------------------------------------------------------------------------------------------
B------------------------------------------------------------------------------------------------
G------------------------------------------------------------------------------------------------
D--------2---------2---------2----------2-----------2-----------2------------2-----------2-------
A-----0------3--0-----3---------3----------3-----------3-----------3-----------3------------3----
E---------------------------3---------3-----------1-----------1-------------0----------1---------

Verse
e------------------------------------------------------------------------------------------------
B------------------------------------------------------------------------------------------------
G----5-5-5-5-5-5------------------2-2-2-2-2-2----------------------------------------------------
D----5-5-5-5-5-5--3-3-3-3-3-3-----2-2-2-2-2-2---3-3-3-3-3-3--------------------------------------
A----3-3-3-3-3-3--3-3-3-3-3-3-----0-0-0-0-0-0---3-3-3-3-3-3--------------------------------------
E-----------------1-1-1-1-1-1-------------------1-1-1-1-1-1--------------------------------------

Bridge right before the chorus

e------------------------------------------------------------------------------------------------
B------------------------------------------------------------------------------------------------
G---------0---------0-----------2----------2-----------------------------------------------------
D------------3---------3----0------3---0------3-------2---------2---------2----------2-----------
A------3---------3-----------------------------------0-----3---0-----3---------3-----------3-----
E--------------------------------------------------------------------------1-----------1---------

Chorus


e-------------------------------------------------------------------
B-------------------------------------------------------------------
G--------5-5-5-5-5-5----7-7-7-7-7-7---2-2-2-2-2-2-------------------
D--------5-5-5-5-5-5----7-7-7-7-7-7---2-2-2-2-2-2--3-3-3-3-3-3------
A--------3-3-3-3-3-3----5-5-5-5-5-5---0-0-0-0-0-0--3-3-3-3-3-3------
E--------------------------------------------------1-1-1-1-1-1------

e-------------------------------------------------------------------
B-------------------------------------------------------------------
G-------------------------------------------------------------------
D------5-5-5-5-5-5---7-7-7-7-7-7---2-2-2-2-2-2-2-10-10-10-10-10-10--
A------5-5-5-5-5-5---7-7-7-7-7-7---2-2-2-2-2-2-2-10-10-10-10-10-10--
E------3-3-3-3-3-3---5-5-5-5-5-5---0-0-0-0-0-0-0--8--8---8---8---8--

This is that riff during the piano part, it's probly not right so try to find something yourself to play.
=====
G----5-
D--5---
=====



powered by lycos
SEARCH: Tripod The Web