My Tripod One-Minute Page
Make your own free website on Tripod.com
.
Going Away To College-Blink 182
Artist: Blink 182
Album: Enema Of The State
Song: Going Away To College
tabbed by Howard Saubert (probly@netscape.net)
notes: look at the bottom for the order

Intro
e-------------------------------------------------
B--4-4-4-4--2-2-2-2--4-4-4-4--2-2-2-2-------------
G--4-4-4-4--4-4-4-4--4-4-4-4--4-4-4-4-------------
D-------------------------------------------------
A-------------------------------------------------
E-------------------------------------------------

e-------------------------------------------------
B--4-4-4-4--2-2-2-2--4-4-4-4--2-2-2-2-------------
G--4-4-4-4--4-4-4-4--4-4-4-4--4-4-4-4-------------
D--2 2 2 2--2-2-2-2--2-2-2-2--2-2-2-2-------------
A-------------------------------------------------
E-------------------------------------------------

Riff 1
e------------------------------------------
B------------------------------------------
G---------8--------8---------8-------------
D----9---------9--------9---------11---11--
A--------------------77---77---99----99----
E-77---77---77---77------------------------

Riff 2
e------------------------------------------
B------------------------------------------
G------9999--------------------------------
D-9999-9999-11111111-----------------------
A-9999-7777-9-9-9-9------------------------
E-7777-------------------------------------

Riff 3
e-------------------------------------------------
B--------------------------------------------------
G-8-88-88-88-9-99-99-99-4-44-44-44-----------------
D-x-xx-xx-xx-x-xx-xx-xx-4-44-44-44-4-44-44-44------
A-6-66-66-66-7-77-77-77-2-22-22-22-4-44-44-44------
E----------------------------------2-22-22-22------

Riff 4
e----------------------------------
B----------------------------------
G----------------------------------
D---9--9--9--9---9--9---11---9-----
A--------------7--7---9----7-------
E-7--7--7--7-----------------------

Order:
Intro x4
Riff 1 x2
Riff 2 x2
Riff 1 x2
Riff 2 x2
Riff 3 x4
Riff 1 x2
Riff 4 x2
Riff 2 x2
Riff 3 x4
Intro x4
Riff 3 x4


powered by lycos
SEARCH: Tripod The Web