My Tripod One-Minute Page
Make your own free website on Tripod.com
.
Buckcherry-Lit It Up
Artist: Buckcherry
Song: Lit Up
Tabbed by: Howard Saubert ( PROBLY@NETSCAPE.NET )

VERY IMPORTANT NOTES: GUITAR 1 IS IN OPEN G TUNING (DGDGBE LOW-HIGH) =
TO ACHIEVE THIS TUNING JUST TUNE DOWN BOTH YOUR E'S ONE STEP AND THEN =
TUNE YOUR A STRING DOWN ONE STEP ALSO. ALSO PLEASE NOTE THAT BELOW ARE =
THE RIFFS OF THE SONG, TO FIND THE ORDER PLEASE LOOK ALL THE WAY AT THE =
BOTTOM. ANY QUESTIONS OR COMMENTS PLEASE EMAIL ME. (Everything should =
match up perfectly!!)


Intro Guitar 1 only
D =
:------------------------|------------------|------------------|---------=
-------------------|
B =
:5---0-------0-----0-5-0-|---0----5-6---6---|---6---5-6-5----5-|-6----5--=
--6---0------------|
G =
:5---0-------0-----0-5-0-|---0----5-5---5---|---5---5-5-5----5-|-5----5--=
--5---0------------|
D =
:5---0-------0-----0-5-0-|---0----5-7---7---|---7---5-7-5----5-|-7----5--=
--7---0------------|
G =
:5---0-------0-----0-5-0-|---0----5-5---5---|---5---5-5-5----5-|-5----5--=
--5---0------------|
D =
:------------------------|------------------|------------------|---------=
-------------------| =20
=3D=3D=3D=3D=3D=3D=3D=3D=3D=3D=3D=3D=3D=3D=3D=3D=3D=3D=3D=3D=3D=3D=3D=3D=3D=
=3D=3D=3D=3D=3D=3D=3D=3D=3D=3D=3D=3D=3D=3D=3D=3D=3D=3D=3D=3D=3D=3D=3D=3D=3D=
=3D=3D=3D=3D=3D=3D=3D=3D=3D=3D=3D=3D=3D=3D=3D=3D=3D=3D=3D=3D=3D=3D=3D=3D=3D=
=3D=3D=3D=3D=3D=3D=3D=3D=3D=3D=3D=3D=3D=3D=3D=3D=3D=3D=3D=3D

Riff 1 (Guitar 1)
D =
:--------------------|--------------------|----------------------|-------=
--------------|
B =
:-5-0--0--0---5---0--|--0---5---6---6-----|---6---5-6---5---5----|---6--5=
---0----------|
G =
:-5-0--0--0---5---0--|--0---5---5---5-----|---5---5-5---5---5----|---5--5=
---0----------|
D =
:-5-0--0--0---5---0--|--0---5---7---7-----|---7---5-7---5---5----|---7--5=
---0----------|
G =
:-5-0--0--0---5---0--|--0---5---5---5-----|---5---5-5---5---5----|---5--5=
---0----------|
D =
:--------------------|--------------------|----------------------|-------=
--------------|

Riff 1a (Guitar 2)
E =
:--------------------|--------------------|----------------------|-------=
--------------|
B =
:--------------------|--------------------|----------------------|-------=
--------------|
G =
:--------------------|--------------------|-------5-5---5---5----|---5--5=
--------------|
D =
:-5-5--5--5---5---5--|--5---3---3---3-----|---3---5-5---5---5----|---5--5=
---5----------|
A =
:-5-5--5--5---5---5--|--5---3---3---3-----|---3---3-3---3---3----|---3--3=
---5----------|
E =
:-3-3--3--3---3---3--|--3---1---1---1-----|---1------------------|-------=
---3----------|


=3D=3D=3D=3D=3D=3D=3D=3D=3D=3D=3D=3D=3D=3D=3D=3D=3D=3D=3D=3D=3D=3D=3D=3D=3D=
=3D=3D=3D=3D=3D=3D=3D=3D=3D=3D=3D=3D=3D=3D=3D=3D=3D=3D=3D=3D=3D=3D=3D=3D=3D=
=3D=3D=3D=3D=3D=3D=3D=3D=3D=3D=3D=3D=3D=3D=3D=3D=3D=3D=3D=3D=3D=3D=3D=3D=3D=
=3D=3D=3D=3D=3D=3D=3D=3D=3D=3D=3D=3D=3D=3D=3D=3D=3D=3D=3D=3D=3D
Chorus
all lit up a again on the couch in my =
bed
(Guitar 1)
D =
:------------------------|----------------------|-----------------------|=

B =
:---/8---------8-\--\3---|-----3---3-------3/-/-|-10---10-----10\---\5--|=

G =
:---/8---------8-\--\3---|-----3---3-------3/-/-|-10---10-----10\---\5--|=

D =
:---/8---------8-\--\3---|-----3---3-------3/-/-|-10---10-----10\---\5--|=

G =
:---/8---------8-\--\3---|-----3---3-------3/-/-|-10---10-----10\---\5--|=

D =
:------------------------|----------------------|-----------------------|=


(Guitar 2)
E =
:------------------------|----------------------|-----------------------|=

B =
:----8---------8-\---3---|-----3---3-------3/---|-10---10--10-10\----5--|=

G =
:----8---------8-\---3---|-----3---3-------3/---|-10---10--10-10\----5--|=

D =
:----8---------8-\---3---|-----3---3-------3/---|-10---10--10-10\----5--|=

A =
:----6---------6-\---1---|-----1---1-------1/---|--8----8---8--8\----3--|=

E =
:------------------------|----------------------|-----------------------|=



Chorus cntd...
and yes im all lit up again flyin
(Guitar 1)
D =
:----------------------|------------------|-----------------------------|=

B =
:--<5>--5-5---5-5-5/-/-|-8--------8\-\-3--|------<3>--/----/---/--/--(8)|=

G =
:--<5>--5-5---5-5-5/-/-|-8--------8\-\-3--|------<3>--/----/---/--/--(8)|=

D =
:--<5>--5-5---5-5-5/-/-|-8--------8\-\-3--|------<3>--/----/---/--/--(8)|=

G =
:--<5>--5-5---5-5-5/-/-|-8--------8\-\-3--|------<3>--/----/---/--/--(8)|=

D =
:----------------------|------------------|-----------------------------|=


(Guitar 2)
E =
:----------------------|------------------|-----------------------------|=

B =
:--<5>--5-6---6-5-5/---|-8--------8\---3--|----3--3---------3---3-------|=

G =
:--<5>--5-5---5-5-5/---|-8--------8\---3--|----3--3---------3---3-------|=

D =
:--<5>--5-5---5-5-5/---|-8--------8\---3--|----3--3---------3---3--5----|=

A =
:--<3>--3-3---3-3-3/---|-6--------6\---1--|----1--1---------1---1--5----|=

E =
:----------------------|------------------|------------------------3----|=




=3D=3D=3D=3D=3D=3D=3D=3D=3D=3D=3D=3D=3D=3D=3D=3D=3D=3D=3D=3D=3D=3D=3D=3D=3D=
=3D=3D=3D=3D=3D=3D=3D=3D=3D=3D=3D=3D=3D=3D=3D=3D=3D=3D=3D=3D=3D=3D=3D=3D=3D=
=3D=3D=3D=3D=3D=3D=3D=3D=3D=3D=3D=3D=3D=3D=3D=3D=3D=3D=3D=3D=3D=3D=3D=3D=3D=
=3D=3D=3D=3D=3D=3D=3D=3D=3D=3D=3D=3D=3D=3D=3D=3D=3D=3D=3D=3D=3D=3D


Riff 2 (Guitar 1)
I love the cocain % Ma
D :-------------------|--------------------|
B :-0-0-5-0-5-0-----0-|-5-0-0-0---10--10---|
G :-0-0-5-0-5-0-----0-|-5-0-0-0---10--10---|
D :-0-0-5-0-5-0-----0-|-5-0-0-0---10--10---|
G :-0-0-5-0-5-0-----0-|-5-0-0-0---10--10---|
D :-------------------|--------------------|

Riff 2a (Guitar 2)
E :-------------------|--------------------|
B :-------------------|--------------------|
G :-------------------|--------------------|
D :---5-5-5-5-5-----5-|-5-5-5-5----3---3---|
A :---5-5-5-5-5-----5-|-5-5-5-5----3---3---|
E :---3-3-3-3-3-----3-|-3-3-3-3----1---1---|

=20
=20
Riff 2 (Guitar 1) Continued
ma can you wait? mama can you wait? go ahead
D :------------------------|------------------|
B :-\-\--\5---\--\-----0---|/3-0-/3-0-0-------|
G :-\-\--\5---\--\-----0---|/3-0-/3-0-0-------|
D :-\-\--\5---\--\-----0---|/3-0-/3-0-0-------|
G :-\-\--\5---\--\-----0---|/3-0-/3-0-0-------|
D :------------------------|------------------|

Riff 2a (Guitar 2) Continued
E :------------------------|------------------|
B :------------------------|------------------|
G :-------5----5-----------|------------------|
D :(3)----5----5-----------|----------5-------|
A :(3)----3----3-----------|----------5-------|
E :(1)-----------------0-0-|-1-0--1-3-3-------|



INTERLUDE SOLO
(GUITAR 3)
E :-------------------|----------------3----------------|
B :-------------------|-3----------3-----6^-~-~---~--~--|
G :------3---5---3----|-3---5^--------------------------|
D :---/5---5---5---5--|---------------------------------|
A :-------------------|---------------------------------|
E :-------------------|---------------------------------|

continued.... (Guitar 3)
E :--------3----------|-----------------------------|
B :-0-6^r----6-3------|-----------------------------|
G :-0------------6-5--|3---5---3^r------------------|
D :-------------------|-----------5~-~-~-~---~--~---|
A :-------------------|-----------------------------|
E :-------------------|-----------------------------|


Guitar Solo

(Guitar 3)
E :---------------------------|----3-----------------------------|
B :---------------------------|3-------6-/8---8~-~/18---18-18---~|
G :--------------3---3--5^--r-|-------------------/17---17-17-^-~|
D :-5~-~--~-~-~-~--5----------|----------------------------------|
A :---------------------------|----------------------------------|
E :---------------------------|----------------------------------|

(Guitar 1)
D :---------------------------|----------------------------------|
B :-0------------0-0---10-----|-----10---10-----10-10---------5--|
G :-0------------0-0---10-----|-----10---10-----10-10---------5--|
D :-0------------0-0---10-----|-----10---10-----10-10---------5--|
G :-0------------0-0---10-----|-----10---10-----10-10---------5--|
D :---------------------------|----------------------------------|

(Guitar 2)
E :---------------------------|----------------------------------|
B :---------------------------|-------------------------------5--|
G :---------------------------|-------------------------------5--|
D :----5-------5-5-5-5--3-----|------------3------3--3---3----5--|
A :----5-------5-5-5-5--3-----|------------3------3--3---3----3--|
E :----3-------3-3-3-3--1-----|------------1------1--1---1-------|

Solo Continued...
(Guitar 3)
E :-----------------------------------------|
B :-~-~18------18-------18---~--~---18-18---|
G :-~-~----17^----17^---17^--~--~---17^17^--|
D :-----------------------------------------|
A :-----------------------------------------|
E :-----------------------------------------|

(Guitar 1)
D :-----------------------------------------|
B :----5-------6----------6--------5-------3|
G :----5-------5----------5--------5-------3|
D :----5-------7----------7--------5-------3|
G :----5-------5----------5--------5-------3|
D :-----------------------------------------|


(Guitar 2)
E :-----------------------------------------| =
B :------------6----------6--------5-------3|
G :------------5----------5--------5-------3|
D :------------5----------5--------5-------3|
A :------------3----------3--------3-------1|
E :-----------------------------------------|

Solo continued....
(Guitar 3)
E =
:-------------------------------------|----------------------------------=
-|
B =
:---18---18--~---~-18-\--3-/---15-----|---15----------15---17-15-17------=
-|
G =
:r--17---17--~---~-17-\--3-/---15-----|---15---17----------17-15-17------=
-|
D =
:-------------------------------------|----------------------------------=
-|
A =
:-------------------------------------|----------------------------------=
-|
E =
:-------------------------------------|----------------------------------=
-|

(Guitar 1)
D =
:-------------------------------------|----------------------------------=
-|
B =
:---3----4---------4---3-------0------|---0----0-----------0---0--10-----=
-|
G =
:---3----3---------3---3-------0------|---0----0-----------0---0--10-----=
-|
D =
:---3----5---------5---3-------0------|---0----0-----------0---0--10-----=
-|
G =
:---3----3---------3---3-------0------|---0----0-----------0---0--10-----=
-|
D =
:-------------------------------------|----------------------------------=
-|

(Guitar 2)
E =
:-------------------------------------|----------------------------------=
-|
B =
:--------4---------4---3--------------|----------------------------------=
-|
G =
:--------3---------3---3--------------|----------------------------------=
-|
D =
:--------3---------3---3-------5---5--|---5----5-----------5--------3----=
-|
A =
:--------1---------1---1-------5---5--|---5----5-----------5--------3----=
-|
E =
:------------------------------3---3--|---3----3-----------3---0----1----=
-|


Solo still continued.....
(Guitar 3)
E =
:----------------------------------|-------15--------15--------15--------=
|
B =
:-------------------------------15-|-18^--------18^-------18--------18---=
|
G =
:--17-p-15------15-----------------|-------------------------------------=
|
D =
:----------17--------17~-~-~-------|-------------------------------------=
|
A =
:----------------------------------|-------------------------------------=
|
E =
:----------------------------------|-------------------------------------=
|

(Guitar 1)
D =
:----------------------------------|-------------------------------------=
|
B =
:10-10----10---10---10---------5---|--5--5-6---5-----6----5--------3-----=
|
G =
:10-10----10---10---10---------5---|--5--5-5---5-----5----5--------3-----=
|
D =
:10-10----10---10---10---------5---|--5--5-7---5-----7----5--------3-----=
|
G =
:10-10----10---10---10---------5---|--5--5-5---5-----5----5--------3-----=
|
D =
:----------------------------------|-------------------------------------=
|


(Guitar 2)
E =
:----------------------------------|-------------------------------------=
|
B =
:-----------------------------5----|--5----6---------6----5--------3-----=
|
G =
:-----------------------------5----|--5----5---------5----5--------3-----=
|
D =
:----3----------3----3--------5----|--5----5---------5----5--------3-----=
|
A =
:----3----------3----3--------3----|--3----3---------3----3--------1-----=
|
E =
:----1----------1----1-------------|-------------------------------------=
|


Solo (the end finally)
(Guitar 3)
E :--15--------15-------15------------|----------------------|
B :-------17--------18-----17-18-18^-~|-~\-\-----------------|
G :-----------------------------------|----------------------|
D :-----------------------------------|----------------------|
A :-----------------------------------|----------------------|
E :-----------------------------------|----------------------|


(Guitar 1)
D :-----------------------------------|-----------------------|
B :--3----3----4----3---4-3---3---0---|--0--------------------|
G :--3----3----3----3---3-3---3---0---|--0--------------------|
D :--3----3----5----3---5-3---3---0---|--0--------------------|
G :--3----3----3----3---3-3---3---0---|--0--------------------|
D :-----------------------------------|-----------------------|

(Guitar 2)
E :-----------------------------------|-----------------------|
B :------------4--------4-3-----------|-----------------------|
G :------------3--------3-3-----------|-----------------------|
D :------------3--------3-3---5---5---|--5\-------------------|
A :------------1--------1-1---5---5---|--5\-------------------|
E :---------------------------3---3---|--3\-------------------|
=3D=3D=3D=3D=3D=3D=3D=3D=3D=3D=3D=3D=3D=3D=3D=3D=3D=3D=3D=3D=3D=3D=3D=3D=3D=
=3D=3D=3D=3D=3D=3D=3D=3D=3D=3D=3D=3D=3D=3D=3D=3D=3D=3D=3D=3D=3D=3D=3D=3D=3D=
=3D=3D=3D=3D=3D=3D=3D=3D=3D=3D=3D=3D=3D=3D=3D=3D=3D=3D=3D=3D=3D=3D=3D=3D=3D=
=3D=3D=3D=3D=3D=3D=3D=3D=3D=3D=3D=3D=3D=3D=3D=3D=3D=3D=3D=3D=3D=3D
Right Now is the bridge where there is no guitar



Tell me, are you fuck-in' high?
(Guitar 1)
D :----------------------|------------------|
B :----------------------|-----0------------|
G :----------------------|-----0------------|
D :----------------------|-x-x-0------------|
G :-----0---0-0---0-0----|-x-x-0------------|
D :----------------------|------------------|
(Guitar 2)
E :----------------------|------------------|
B :----------------------|------------------|
G :----------------------|---x--------------|
D :----------------------|---x-5------------|
A :----------------------|-----5------------|
E :----------------------|-----3------------|



(Guitar 1)=20
just so right youre right love are you right love?yes im
D =
:-----------------------------|-------------------|--------------------|
B =
:-10----------10-\-\--5-------|-5-----5---5\-\--3-|-3-------3----/-----|
G =
:-10----------10-\-\--5-------|-5-----5---5\-\--3-|-3-------3----/-----|
D =
:-10----------10-\-\--5-------|-5-----5---5\-\--3-|-3-------3----/-----|
G =
:-10----------10-\-\--5-------|-5-----5---5\-\--3-|-3-------3----/-----|
D =
:-----------------------------|-------------------|--------------------|

(Guitar 2)
E =
:-----------------------------|-------------------|--------------------|
B =
:-----------------------------|-------------------|--------------------|
G =
:-----------------------------|-5-----5---5--\-\3-|-3-------3------3/--|
D =
:--3-----------3-/------------|-5-----5---5--\-\3-|-3-------3------3/--|
A =
:--3-----------3-/------------|-3-----3---3--\-\1-|-1-------1------1/--|
E =
:--1-----------1-/------------|-------------------|--------------------|

=3D=3D=3D=3D=3D=3D=3D=3D=3D=3D=3D=3D=3D=3D=3D=3D=3D=3D=3D=3D=3D=3D=3D=3D=3D=
=3D=3D=3D=3D=3D=3D=3D=3D=3D=3D=3D=3D=3D=3D=3D=3D=3D=3D=3D=3D=3D=3D=3D=3D=3D=
=3D=3D=3D=3D=3D=3D=3D=3D=3D=3D=3D=3D=3D=3D=3D=3D=3D=3D=3D=3D=3D=3D=3D=3D=3D=
=3D=3D=3D=3D=3D=3D=3D=3D=3D=3D=3D=3D=3D=3D=3D=3D=3D=3D=3D=3D=3D=3D


=20



Outro Solo

(Guitar 3)
E :-------------------------|------------------|-------------------|
B :-------------------------|-------3----------|-------------------|
G :-------------------------|0------3---5---3--|-5---3-------------|
D :-------------------------|0-3-/5---5---5---5|---5---5~-~-~5-3-5-|
A :-------------------------|--3-/5------------|-------------------|
E :---------------------15\-|------------------|-------------------|


continued........
(Guitar 3)
E :-------------------|---3-----------------------------|
B :--------------3----|---3-----------------------------|
G :------3---5---3----|-----5^r-p3----------------------|
D :-3-h5---5---5---5^-|--------------5--~---~-----------|
A :-------------------|------------------------/19-\----|
E :-------------------|---------------------------------|

continued..........
(Guitar 3)
E :-------------------|-----------------------------|
B :-0------3---5---3--|-----------------------------|
G :-0------3---5---3--|--5--------3------------3----|
D :-----/5---5---5---5|------5--------5~-~-~5-----5-|
A :-------------------|-----------------------------|
E :-------------------|-----------------------------|

continued..........
(Guitar 3)
E :---------------------------|----------------------------------|
B :-----------------------3--3|--6^--6^-~--~-~-~-~---~-~-5--5----|
G :----------3-----3-5^-------|----------------------------------|
D :---3-h5-------5------------|----------------------------------|
A :---------------------------|----------------------------------|
E :---------------------------|----------------------------------|

continued........
(Guitar 3)
E :-----------------------------------------|
B :--6----/-8---------------8-----8-----8--~|
G :--7----/-9--10----10----10----10----10---|
D :-----------------------------------------|
A :-----------------------------------------|
E :-----------------------------------------|

still going.........
(Guitar 3)
E :-------------------------------------|
B :--~--~8------------------------------|
G :-----------9--10--10~--~-~-10---~--~-|
D :-------------------------------------|
A :-------------------------------------|
E :-------------------------------------|

almost done....
(Guitar 3)
E :-----------------------------------|
B :-----------------------------------|
G :10~--~-~10-/12----0-----0-12-~-~-~-|
D :-----------------------------------|
A :-----------------------------------|
E :-----------------------------------|

litle bit more.........
(Guitar 3)
E :----------------------------------|
B :-----------0---------------3------|
G :0----12~-~-0----12-/-------3------|
D :-----------------------5-----5----|
A :----------------------------------|
E :----------------------------------|

keep going.....(Guitar 1 and 2 reenter)
(Guitar 3)
E =
:-------------------------------------|----------------------------------=
-|
B =
:--5-------3---------5---------3------|----------------------3--3--------=
-|
G =
:--5-------3---------5---------3------|----------------------3--3--------=
-|
D =
:-----5---------5---------5---------5~|-~--~3----3----5~--~--------5-----=
-|
A =
:-------------------------------------|----------------------------------=
-|
E =
:-------------------------------------|----------------------------------=
-|


(Guitar 1)
D :-------------------------------------|----------------------------|
B :--5--0---------0---------0----5---0--|-----0--------5--6------6---|
G :--5--0---------0---------0----5---0--|-----0--------5--5------5---|
D :--5--0---------0---------0----5---0--|-----0--------5--7------7---|
G :--5--0---------0---------0----5---0--|-----0--------5--5------5---|
D :-------------------------------------|----------------------------|


(Guitar 2)
E :-------------------------------------|-----------------------------|
B :-------------------------------------|-----------------------------|
G :-------------------------------------|-----------------------------|
D :--5--5--------5----------5----5---5--|-----5-------3--3-------3----|
A :--5--5--------5----------5----5---5--|-----5-------3--3-------3----|
E :--3--3--------3----------3----3---3--|-----3-------1--1-------1----|


The ending
(Guitar 3)
E :----------------------|-------------------------|
B :3------3----3-6-6-----|------6-/8-~-~-~--~------|
G :3------3-5^-----5^----|p3-----------------------|
D :-----5----------------|-------------------------|
A :----------------------|-------------------------|
E :----------------------|-------------------------|

(Guitar 1)
D :----------------------|----------------------------|
B :-----6---5--6--5----5-|6--5--6--5--0---------------|
G :-----5---5--5--5----5-|5--5--5--5--0---------------|
D :-----7---5--7--5----5-|7--5--7--5--0---------------|
G :-----5---5--5--5----5-|5--5--5--5--0---------------|
D :----------------------|----------------------------|

(Guitar 2)
E :----------------------|----------------------------|
B :----------------------|----------------------------|
G :---------5--5--5----5-|-5--5--5--5-----------------|
D :-----3---5--5--5----5-|-5--5--5--5--5--------------|
A :-----3---3--3--3----3-|-3--3--3--3--5--------------|
E :-----1----------------|-------------3--------------|
=
=3D=3D=3D=3D=3D=3D=3D=3D=3D=3D=3D=3D=3D=3D=3D=3D=3D=3D=3D=3D=3D=3D=3D=3D=3D=
=3D=3D=3D=3D=3D=3D=3D=3D=3D=3D=3D=3D=3D=3D=3D=3D=3D=3D=3D=3D=3D=3D=3D=3D=3D=
=3D=3D=3D=3D=3D=3D=3D=3D=3D=3D=3D=3D=3D=3D=3D=3D=3D=3D=3D=3D=3D=3D=3D=3D=3D=
=3D=3D=3D=3D=3D=3D=3D=3D=3D=3D=3D=3D=3D=3D=3D=3D=3D=3D=3D=3D

=20
ORDER:
INTRO (1X)
RIFF 1&1A (4x)
CHORUS (1X)
RIFF 1&1A (2X)
RIFF 2&2A (1X)
INTERLUDE W/ RIFF 1&1A
FIRST HALF OF RIFF 2&2A(1X)
GUITAR SOLO (1X)
BRIDGE (1X)
OUTRO THEN ENDING (1X)




powered by lycos
SEARCH: Tripod The Web