Make your own free website on Tripod.com
.
Rancid-You Don't Care Nothin
#----------------------------------PLEASE
NOTE---------------------------------#
#This file is the author's own work and represents their
interpretation of the #
#song. You may only use this file for private study, scholarship,
or research. #
#------------------------------------------------------------------------------#
"You Don't Care Nothin'" by Rancid
from the 1995 album "...And Out Come the Wolves"
written by Tim Armstrong, Matt Freeman, and Lars Frederiksen
tabbed by Penske


F G C A
e---X----X----X----X----
B---X----X----X----X----
G---X----X----5----X----
D---3----5----5----7----
A---3----5----3----7----
E---1----3----X----5----

Play this during the intro drum roll:
C G A F
C G A F

e-8-8-8-8-8-8-8-8-8-8-8-8-8-8-8-8-8-8-8-8-8-8-8-8-8-8-8-8-8-8---------
B-8-8-8-8-8-8-8-8-8-8-8-8-8-8-8-8-8-8-8-8-8-8-8-8-8-8-8-8-8-8-8(bend)-
G---------------------------------------------------------------------
D---------------------------------------------------------------------
A---------------------------------------------------------------------
E---------------------------------------------------------------------

VERSE:
A F
A cat lies awake when it sleeps

C G
Was she conscious of her own miseries

A F
Will the agony of her pain

C G
Win her to enlightenment and set her conscience free


A F
Do you really wanna know what's happening

C G
Do you really wanna know what's going on

A F
Hey girl you better please take a look around

C G
Explore your heart and find out for yourself

CHORUS:
C F C F
Jenny Demilo you don't care nothin' about me

C F C G F FFFFFFFFFFF
Jenny Demilo well you don't care nothin' about me

VERSE:
A F
I never really got a reason

C G
Never had a use for one before but now I know

A F
That there's now a prize

C G
Both for the wise and the unwise

A F
Do you really wanna know what's happening

C G
Do you really wanna know what's going on

A F
Hey girl you better please take a look around

C G
Explore your heart and find out for yourself

CHORUS:
C F C F
Jenny Demilo you don't care nothin' about me

C F C G F FFFFFFFFFFF
Jenny Demilo well you don't care nothin' about me

BRIDGE:
C G A F
C G A F
e-8-8-8-8-8-8-8-8-8-8-8-8-8-8-8-8-8-8-8-8-8-8-8-8-8-8-8-8-8-8---------
B-8-8-8-8-8-8-8-8-8-8-8-8-8-8-8-8-8-8-8-8-8-8-8-8-8-8-8-8-8-8-8(bend)-
G---------------------------------------------------------------------
D---------------------------------------------------------------------
A---------------------------------------------------------------------
E---------------------------------------------------------------------

VERSE:
A F C G
About me about me about me yeah yeah about me

A F C G C
About me about me about me yeah yeah nothin' about me

CHORUS:
C F C F
Jenny Demilo you don't care nothin' about me

C F C G F FFFFFFFFFFF
Jenny Demilo well you don't care nothin' about me

OUTRO:
C
I said you don't you don't care

G
No you don't care

F C
No you don't care no you don't care

G
I said you don't you don't care

F
No you don't care

C G



powered by lycos
SEARCH: Tripod The Web