My Tripod One-Minute Page
Make your own free website on Tripod.com
.
Limp Bizkit-Nookie
Nookie- transcribed by rasone@aol.com
Guitar Tuned F#, F#, B, E, G#, C# (regular limp tuning is C#, F#, B, E, G#,

C#, but Wes uses a special 4 string on this one)
/=slide all the way down
h=hammer
Intro clean
------------------------------------------------------
------------------------------------------------------
------------------------------------------------------
-------------------15-------------------15----------
-------------------13-------------------13----------
--3/---0---0-------------0h3/----0-----------0---

Play same riff (chorus) w/ distortion

Verse
------------------------------------------------------------
------------------------------------------------------------
------------------------------------------------------------
------------------------------------------------------------
------------------13----12--------------------------------
---0------------------------------12/13-----14------12-

prechorus
w/ slight palm mute on the top string
-----------------------------------------------------
-----------------------------------------------------
------14----------14---------14---------14/15--
-----------------------------------------------------
------12----------12---------12---------12/13--
--0--------0--0------0--0---------0--0-----------

bridge clean
"im only human"
------------------------------------------------------
------------------------------------------------------
------------------------------------------------------
------------------------------------------------------
---0--------0-----------0-------0--------------------
------0--0-----0-0-0-----0-0-----0-0--------------

bridge w/ distortion
"nothin's gonna change"
--------------------------------------------------------
--------------------------------------------------------
------14--x--14--x-x-14-x--14--x---14/15-------
---------------------------------------------------------
------12--x--12--x-x-12-x--12--x---12/13-------
--0-----------------------------------------------------

outro

-----------------------------------------------------
-----------------------------------------------------
------14----------14---------14---------14/15--
-----------------------------------------------------
------12----------12---------12---------12/13--
--0--------0--0------0--0---------0--0-----------

powered by lycos
SEARCH: Tripod The Web