My Tripod One-Minute Page
Make your own free website on Tripod.com
.
Serial Joe-Mistake
+======================================================+
***Olson & Humeniuk Transcriptions***
**this work is our own interpretation of this song**
*please e-mail any corrections*
+======================================================+

Band: Serial Joe
Song: Mistake
Album: Face Down
Transcribers:
Chris Olson & Chris Humeniuk
E-mail: olson8781@home.com {or} ukie@netcom.ca

Tuning: Standard

Keys:
X mute string
PM_ palm mute
* kill note

Note: We don't have the CD so we transcribed the song by hearing it
played a couple times over the radio. It seems to be right,
mind a few missed notes, added notes and/or wrong timing.
Distortion is throughout except guitar 2 at very end.

Intro:
|------------------------------------|
|------------------------------------|
|-------------------4/6-6-6-666------|
|-----2-2------2-22-4/6-6-6-666-66-6-|
|-2-2-2-222-22-2-22-2/4-4-4-444-66-6-|
|-0-0-0--00-00-0-00-------------44-4-|
PM_ PM___

Chorus:
|---------------------------------------|
|---------------------------------------|
|-------------------4/6-6-6-666---------|
|-2-2-2-222-22-2-22-4/6-6-6-666-66-6-66-|
|-2-2-2-222-22-2-22-2/4-4-4-444-66-6-66-|
|-0-0-0--00-00-0-00-------------44-4-44-|

Verse:
(guitar 1) vvvv->play this in place of the
|------------------------------------|----| first two notes after
|------------------------------------|----| riff is played through
|-------------------4/6-6-6-666------|----| one time
|-----2-2------2-22-x---x-x-xxx-66-6-|----|
|-2-2-2-222-22-2-22-2/4-4-4-444-xx-x-|-2--|
|-0-0-0--00-00-0-00-------------44-4-|--4-|
PM_ PM___

(guitar 2)
|------------------------------------|
|------------------------------------|
|-------------------4/6-6-6-666------|
|-----2-2------2-22-4/6-6-6-666-66-6-|
|-2-2-2-222-22-2-22-2/4-4-4-444-66-6-|
|-0-0-0--00-00-0-00-------------44-4-|
PM_ PM___

Solo:
|---------------------------------------------------|
|---------------------------------------------------|
|---9-99*---99-99-9/11-11-11-11/13-13-13\11-11-1111-|
|---x-xx*---xx-xx-x-----x--x--x-----x--x-----x--x-x-|
|---7-77-77-77-77-7/-9--9--9--9/11-11-11\-9--9--9-9-|
|-0*-----00*----------------------------------------|

|---------------------------------------------------|
|---------------------------------------------------|
|---9-99*---99-99-9/11-11-11-11/13-13-13\11-11-1111-|
|---x-xx*---xx-xx-x-----x--x--x-----x--x-----x--x-x-|
|---7-77-77-77-77-7/-9--9--9--9/11-11-11\-9--9--9-9-|
|-0*-----00*----------------------------------------|

|---------------------------------------------------|
|---------------------------------------------------|
|---9-99*---99-99-9/11-11-11-11/13-13-13\11-11-1111-|
|---x-xx*---xx-xx-x-----x--x--x-----x--x-----x--x-x-|
|---7-77-77-77-77-7/-9--9--9--9/11-11-11\-9--9--9-9-|
|-0*-----00*----------------------------------------|

|---------------------------------------------------|
|---------------------------------------------------|
|---9-99*---99-99-9/11*--------/13-13-13\11-11-1111-|
|---x-xx*---xx-xx-x-----------------x--x-----x--x-x-|
|---7-77-77-77-77-7/-9*--------/11-11-11\-9--9--9-9-|
|-0*-----00*----------------------------------------|

After solo play chorus 8 times with guitar 2(clean)
after the chorus has been played through 4 times.

Something like this: (guitar 2) End on: (both guitars)
|---------------------------------| |----------------------|
|---------------------------------| let |----------------------|
|-----1---1-11-1------6-----------| ring|----------------------|
|-----2-2-2-22-2----6---6-----6---| ===>|-2--------------------|
|---2-2-2-2--2-2--4---------6---6-| ===>|-2--------------------|
|-0-----------------------4-------| ===>|-0--------------------|

powered by lycos
SEARCH: Tripod The Web