My Tripod Page
Make your own free website on Tripod.com
KoRn-Blind

BLiND
tune down your six string guitars 5 steps
(ADGCea)
Opener
a|----------------5-5-5-5--|
e|----------------4-4-4-4--|
C|----------------2-2-2-2--|
G|-------------------------|
D|-------------------------|
A|-------------------------|
Riff 2
a|-------------------------|
e|-------------------------|
C|-------------------------|
G|----10---11--------------|
D|----9----10--------------|
A|--0----0-----------------|

Riff 3
D|-------------------------|
A|--0h2-0h3-0h2-0h3--------|

Riff 4
a|-------------------------|
e|-------------------------|
C|-------------------------|
G|-------------------------|
D|----4---5---4---5--8888--|
A|--0-2-0-3-0-2-0-3--6666--|

Riff 4b
a|-------------------------|
e|-------------------------|
C|-------------------------|
G|-------------------------|
D|--------5---4---5--8888--|
A|--0000--3-0-2-0-3--6666--|

Riff 5-guitar1
a|-------------------------|
e|-------------------------|
C|--9----------10----------|
G|--7----------8-----------|
D|--7----------8-----------|
A|-------------------------|

Riff 5-guitar2
a|-3-------3-------3------3----|
e|-4-------5-------4^-----5^---|
^not sure about this part.use a wah wah

Riff 6
D|--7--87-87-7-8-9---|
A|--5--65-65-5-6-7---|

Riff 7-
a|--0*------------5---5----|
e|--0*------------4---4----|
C|--0*------------2---2----|
G|-------------------------|
D|-------------------------|
A|-------------------------|
*on odd times only-tacit on even times
one guitar has a flanger going at the same time

Outro (Guitar1)
a|-------------------5555--|
e|-------------------3333--|
C|-------------------2222--|
G|-------------------------|
D|---4---5---4---5---------|
A|-0-2-0-3-0-2-0-3---------|
guitar 2 does riff 4 at the same time

End guitar riff-guitar1
a|--22^-----22^------------|
e|---------------^20-------|
start bended ^on this note and slowly release
in between this riff guitar2 rubs fingers against A
string to make a quick scratchy noise

End Bass Riff
C|------------------|
G|--14-----15-------|
D|----12-13--13-12--|
A|------------------|
Blind
(are you ready)
This place inside my mind-a place I like to hide
You don't know the chances-what if I should die
This place between my brain-another kind of pain
You don't know the chances-I'm so blind, blind, blind

Another way to hide-escape the pain inside
You don't know the chances-what if I should die
This place between my brain-another kind of pain
You don't know the chances-I'm so blind, blind, blind

deeper and deeper and deeper is all im turning to
living life that seems to be a lost reality
i can never find no way to reach my inner
self esteem is low how deep can i go
in ground that i lay if i dont find a way to
sleep in the grave that clouds my mind
its time i learned to see whats between the lines

I can see, I can see, I'm goin' blind
I'm blind