My Tripod Page
Make your own free website on Tripod.com

got the life-KoRn

heres the tuning : (ADGFad)
that means E,A and D strings get tuned down 5 steps
and G,b and e get tuned down one step

main riff
d|-----------------------------------------------------|
a|-7-7-7-7-7-7-7-7-5-5-5-5--8--8--8--8--8--8--14-14-15-|
F|-----------------------------------------------------|
G|-9-9-9-9-9-9-9-9-7-7-7-7-10-10-10-10-10-10--16-16-17-|

verse
d|-----------7---------------12---7--------|
a|-7------------7--------7------------7----|
F|-----5-----------------------------------|
these are all harmonics. listen for the right timing.
they use a whammy pedal to make this stuff sound an octave higher

fill thing (get your boogie on)
A|-2-2-x-x-0-0-2-2-x-x-x-x-2-2-x-x-|

breakdown part 1
G|-------5------------|
D|----5------------5--|
A|-3--------4---5-----|
all art harmonics

breakdown part 2
d|-------13^*--------|
a|-12^---------------|
F|----------------0--|
G|----------------8--|
* use whammy pedal to make it an octave higher

outro
a|-14-14-15-7----14-14-15-7---|
F|----------------------------|
G|-16-16-17-9----16-16-17-9---|


--------------------------------------------------------------------------------


got the life

hate something some time some way
something kicked out the front door
my inside will never ever follow
so give me something thats for real
and i'll never ever follow
get your boogie on
get your boogie on
hate something somewhere each day
dealing, ripped off again now
why this shit inside
and anyone would follow
so give me nothing just fear
and other shit will follow
god breaks me
i never see the light
who wants to see?
god told me
already got the life
oh i say
god breaks me
i never see the light
who wants to see?
god told me
already got the life
oh i say
each day i can feel it swallow
inside something took from me
i dont feel your deathly ways
each day i feel so hollow
inside always beating me
shall we never see
so come dance with me
dance with me
dance with me
dance with me
god breaks me
i never see the light
who wants to see?
god told me
already got the life
got the life
got the life
got the life
got the life