My Tripod Page
Make your own free website on Tripod.com


Got The Life
BAND: KoRn
ALBUM: FoLLow thE leadeR
Trancsribed by: Nick "Head Wannabe" Di Claudio
2 7 strings tuned down 1 whole step, high 2 low d a F C G D A

Chorus/Intro
"God pays me,the more i see the light,who wants too see?"
d||--------------------------------------------------|
a||--------------------------------------------------|
F||--------------------------------------------------|
C||-11-11-11-11-11-11-11-11\9-9-9/12-12-12/16-16-17--|
G||-11-11-11-11-11-11-11-11\9-9-9/12-12-12/16-16-17--|
D||--9--9--9--9--9--9--9--9\7-7-7/10-10-10/14-14-15--|
A||--------------------------------------------------|
Gtr1 (Head)
d||-------------------------------------------------||
a||-------------------------------------------------||
F||-------------------------------------------------||
C||-11-11-11-11-11-11-11-11\9-9-9/12-12-12\7-7-7-7--||
G||-11-11-11-11-11-11-11-11\9-9-9/12-12-12\7-7-7-7--||
D||--9--9--9--9--9--9--9--9\7-7-7/10-10-10\5-5-5-5--||
A||-------------------------------------------------||

d||-------------------------------------------------|| Gtr2
(Munky)
a||-------------------------------------------------||
F||-------------------------------------------------||
C||-------------------------------------------------||
G||-10--------------------7------11-------9-----10--||
D||-10--------------------7------11-------9-----10--||
A||--8--------------------5-------9-------7------8--||

Verse
"hate something sometime someway,somethin kicked off the front
floor."
* * *
d||--*---10---5---*-----*-------5---*--|| Gtr2 (Munky)
a||--5------------5-----5---*-------5--||
F||-------------------------3----------||
C||------------------------------------||
*
d||--*---10~~~~~~~~~~~~~*--------------|| Gtr1 (Head)
a||--5~~~~~~~~~~~~~~~~~~5~~~*~~~~~~~~--||
F||-------------------------3~~~~~~~~--||
C||------------------------------------||

Riff A
"each day i can feel inside.."
d||--------------------------------|| Gtr2 (Munky)
a||--------------------------------||
F||--------------------------------||
C||---8~~~~~~8~~~5~~~9~~~7~~~8~~~--||
G||--------------------------------||

Riff B
"dance with me,...dance with me,...dance with me,..."
(rumbiddiboo) (rumbiddiboo) (rumdumdeedumdumbiddieboo)
d||-----5-6-5-------5-6-----|| Gtr1 (Head)
a||--5^----------5^---------||
F||-----------3----------3--||
C||-------------------------||

Ending Fill
d||--------------------------------------------|| Gtr1 (Head)
a||--------------------------------------------||
F||--------------------------------------------||
C||-11-11-11-11--13-13-13-13--9-9-9-9-9-9-9-9--||
G||-11-11-11-11--13-13-13-13--9-9-9-9-9-9-9-9--||
D||--9--9--9--9--11-11-11-11--7-7-7-7-7-7-7-7--||
A||--------------------------------------------||
>.............>.............>...........>.....

Here's a legend ok...
/= slide up *= Harmonic
\= slide down >..= gets slower and slower
^= bend ~= wah wah pedal