My Tripod Page
Make your own free website on Tripod.com

Song: Counterfeit
Band: Limp Bizkit
Album: Three Dollar Bill Y'all$
Tabbed by: Anonymous
Brought to you by Davey's Weekly Tabs. Mail Davey713@aol.com to join.

Intro:
D--------------------------------------------------------------------
A--------------------------------------------------------------------
F--------------------------------------------------------------------
C--------------------------------------------------------------------
G--------------------------------------------------------------------
C-0h2-2-2-0-2-0-2-0-3-3---0h2-2-2-0-2-0-2-0-2-0-3--

Chorus:
D---------------------------------------
A---------------------------------------
F---------------------------------------
C-0-0-----------0-0-0---------------
G-0-0-*5-*5---0-0-0--*5----------
C-0-0-----------0-0-0------*9-*9--

Verse: (mostly bass)
D----------------------------------------------
A----------------------------------------------
F-----------------------------------------------
C----0----1---0-------0----0----1----0----
G-------3---1----1-------0----3----1----0-
C-0-------------------0-----------------------

Interlude:
D-------------------------------------------
A-------------------------------------------
F-------------------------------------------
C-------------6---6------------4--4/6---
G----------6---6------------4-----4/6---
C-4/5--6------------6\5-4-------4/6---

2nd Chorus:
D----------------------------------------------
A----------------------------------------------
F--------------5-8-3-2----------------------
C-0-0-0-0---5-8-3-2---0-0-0-3-5-1---
G-0-0-0-0---3-6-1-0---0-0-0-3-5-1---
C-0-0-0-0----------------0-0-0-3-5-1---