My Tripod Page
Make your own free website on Tripod.com

SONG: Faith
BAND: Limp Bizkit
ALBUM: Three Dollar Bill, Y'all $
Transcribed by: Nick "Head Wannabe" Di Claudio
6 string standard tuning

Intro reapeat last time,this once.
e||-7-x7x7-xx-7-7-|-7-xxxx-7-xx7--||
B||-7-x7x7-xx-7-7-|-7-xxxx-7-xx7--||
G||-8-x8x8-xx-8-8-|-8-xxxx-8-xx8--||
D||-9-x9x9-xx-9-9-|-9-xxxx-9-xx9--||
A||-9-x9x9-xx-9-9-|-9-xxxx-9-xx9--||
E||-7-x7x7-xx-7-7-|-7-xxxx-7-xx7--||

Verse
"oh i guess it would be nice,if i could touch your body..."
e||-7x7x7-xx-7-7--|-7x7x7-xx-7-7--|| play first part 2x
B||-7x7x7-xx-7-7--|-7x7x7-xx-7-7--|| second part 1x
G||-8x8x8-xx-8-8--|-6x6x6-xx-6-6--|| first part 1x
D||-9x9x9-xx-9-9--|-7x7x7-xx-7-7--||
A||-9x9x9-xx-9-9--|-7x7x7-xx-7-7--||
E||-7x7x7-xx-7-7--|-5x5x5-xx-5-5--||
1st 2nd

Riff A
"Oh but i need some time off,from that emotion..."
e||---------------|---------------|| repeat this 2x
B||---------------|---------------||
G||--------6------|--------8------||
D||------7---7----|------9---9----||
A||----7-------7--|----9-------9--||
E||--5------------|--7------------||

Riff A2
e||------------------------12--||
B||----------------9h10p9------||
G||-------6------6-------------||
D||-----------7----------------||
A||---------7------------------||
E||--3-5-----------------------||

Chorus
"i gotta have FAITH!!!!"
e||------------------||
B||------------------||
G||------------------||
D||-9-9-9-99-9-9-9^--||
A||-9-9-9-99-9-9-9^--||
E||-7-7-7-77-7-7-7^--||

Verse
"Baby,i know your asking me to stay..."
e||------------------|-------------------|| same order as first
verse
B||------------------|-------------------||
G||------------------|-------------------||
D||-9-9-9-99-9-9-9^--|--7-7-7-77-7-7-7^--||
A||-9-9-9-99-9-9-9^--|--7-7-7-77-7-7-7^--||
E||-7-7-7-77-7-7-7^--|--5-5-5-55-5-5-5^--||

Ending Riff
"i gotta have....faaaith...i gotta have....faaaaaith..."
e||-------------------------------------------------||
B||-------------------------------------------------||
G||-------------------------------------------------||
D||-3-3-4-4-3-3-4444-4-4-4--3-3-4-4-3-3-4444-4-4-2--||
A||-3-3-4-4-3-3-4444-4-4-4--3-3-4-4-3-3-4444-4-4-2--||
E||-1-1-2-2-1-1-2222-2-2-2--1-1-2-2-1-1-2222-2-2-0--||
Here is a legend...
h= hammer ^= bend
p= pull-off x= dead note
that's all...
______________________________________________________________________