My Tripod Page
Make your own free website on Tripod.com

THIS IS MY WORK AND IS INTENDED FOR HOME USE...BLAH BLAH BLAH
Keep making tabs people...fuck what the record companies say


Title: Down
Artist: Lit
Album: A Place in the Sun
Author: Scott A.


Verse

E :-------------------------------------------------------------|
B :-------------------------------------------------------------|
G :----------------------------5--------------------------------|
D :5-4-5-----5-5-4-5-----5-4-5-5---5-4-5-----5-5-4-5-----5-4---4|
A :5-4-5-----5-5-4-5-----5-4-5-3---5-4-5-----5-5-4-5-----5-4---4|
E :3-2-3-x-x-3-3-2-3-x-x-3-2-3-----3-2-3-x-x-3-3-2-3-x-x-3-2---2|

Pre-Chorus

E :-------------------------------------------------------------
1|
B :-------------------------------------------------------------
||
G
:7---7---7-7-7--5---5---5-5-5---------------------------------*||
D
:7---7---7-7-7--5---5---5-5-5---5-4-5-----5-5-4-5-----5-4---4-*||
A :5---5---5-5-5--3---3---3-3-3---5-4-5-----5-5-4-5-----5-4---4-
||
E :-------------------------------3-2-3-x-x-3-3-2-3-x-x-3-2---2-
||

Chorus

E :-----------|
B :-----------|
G :----------4|
D :4---------2|
A :4---------2|
E :2----------|

Interlude

E :-----------------------------------------------------------|
B :-----------------------------------------------------------|
G :-----5---------5-------5------------------5---------5------|
D :3----5----3----5----3--5---5---------3----5----3----5----3-|
A :3----3----3----3----3--3---5---------3----3----3----3----3-|
E :1---------1---------1------3---------1---------1---------1-|

Song Order

Verse
Pre-Chorus
Chorus
Verse
Pre-Chorus
Chorus
Chorus (Picked)
Interlude
Pre-Chorus
Chorus

Questions, Comments, Hate Mail WuTangNevr@aol.com
copyright 6/20/99 3:58 EST