Marilyn Manson-Man That You Fear

Song: Man That You Fear
Band: Mailyn Manson
Album: Antichrist Superstar
Tabbed by: me
http://www.geocities.com/SunsetStrip/Towers/7371/

Riff 1: (the verse riff and this is just the chord progression there is 
no precise strumming pattern. plus, you can do anything with this riff 
(single string plucking or normal strumming) this goes in and out of 
the song added with weird effects)
e||------|-------|------|------||
B||--8--|--11-|--8--|--10-||
G||--7--|--10-|--7--|--9---||
D||--5--|--8---|--5---|--7--||
A||--5--|--8---|--5---|--7--||
E||------|-------|------|------||
    D/G   F/A#  D/G   E/A


Riff 2: (pre-chorus slide with major distortion. speaking of which, you 
should use a slide and slide up 12 frets and let go)
e||------||
B||------||
G||------||
D||--0/--||
A||--0/--||
E||--0/--||


Riff 3: (chorus riff: this is the foreground guitar which is distorted 
but theres a second guitar with no distortion in the background 
strumming the same chords in a constant motion in no particular order)
e||------------------------------------------------||
B||-----------------------------------------------||
G||--9------------7------------5------------5--||
D||--9------------7------------5------------5--||
A||--7------------5------------3------------3--||
E||--7------------5------------3------------3--||


riff 3a (bridge riff: no distortion)
e||---------------------------------------------------------------------------
--
B||---------------------------------------------------------------------------
--
G||---------------------------------------------------------------------------
--
D||---------------------------------------------------------------------------
--
A||--0--0--0--0--0--0--0--0--2-2-2-2-2-2-3-3-3-3-3-3-4-4-4-4--
E||---------------------------------------------------------------------------
--


riff 3a continued
e||------------------------------------------------------------------------||
B||------------------------------------------------------------------------||
G||-----------------------------------------------------------------------||
D||-----------------------------------------------------------------------||
A||--0--0--0--0--0--0--0--0--2-2-2-2-2-2-3-3-3-3-3-3-3-3--||
E||-----------------------------------------------------------------------||


riff 3b (in background of riff 3a and use weird distortion) 
e||-----------------------------------------------------------||
B||--------------10101010------------------8-8-8-8--||
G||--2-2-2-2---9--9--9--9----4-4-4-4----7-7-7-7--||
D||--2-2-2-2---7--7--7--7----4-4-4-4----5-5-5-5--||
A||--0-0-0-0---7--7--7--7----2-2-2-2----5-5-5-5--||
E||--0-0-0-0--------------------2-2-2-2----------------||


riff 4 (pre-chorus slide for the last chorus and its the same deal 
with riff 2)
e||------||
B||------||
G||------||
D||--2/--||
A||--2/--||
E||--0/--||




Make your own free website on Tripod.com