My Tripod Page
Make your own free website on Tripod.com

Song: 3 am
Band: Matchbox 20
Album: Yourself or Someone Like You
Tabbed by: Davey713@aol.com
Brought to you by Davey's Weekly Tabs. E-Mail Davey713@aol.com to join.

Tuning: Down 1/2 step (Eb Ab Db Gb Bb Eb)

Intro:
-----3-3--3----------------3-3--3----3--------
-----3-3--3----------------3-3--3-------3-----
-----0-0--0---------0-----0-0--0----------0--
-----0-0--2---0h2--------0-0--2--------------
--2--------3------------2---------3--------------
--3----------------------3-------------------------

Verse:
D\G Cadd2 G Cadd2 G Cadd2
She said it's cold...

Pre-Chorus:
And she only sleeps when its raining...
E----------------------3-------------0-------------3------------2-------------
---
B--------------------2---2--------3---3--------3---3--------3---3-------------

G-----------------0--------3----2-------2----2-------2----2-------2-------0--
D--------0h2-0--------------0------------0--------------0------------0h2-----
A-0h2-------------------------------------------------------------------------
----
E-----------------------------------------------------------------------------
-------

Chorus:
G D Cadd2 D

Bridge:
G Cadd2
E-----------3----------------------------------------------------------
B--------3----2-------------------------------------------------------
G-----2----------0-------0-------------------------------------------
D--0----------------0h2---------------------------------0h2--0---
A----------------------------------------------------0h2-------------
E----------------------------------------------------------------------

G Cadd2
E---------2------------0---------------------------------------------
B-------3---3--------3---3-----------------------------------------
G-----2-------2----2-------2-------0------------------------------ (repeat
2x)
D---0------------0-------------0h2--------------------------------
A---------------------------------------------------------------------
E--------------------------------------------------------------------