My Tripod Page
Make your own free website on Tripod.com

Song: Harvest Moon
Band: Neil Young
Album: ????
Tabbed by Mark Ferris (mtferris@juno.com)
Brought to you by Davey's Weekly Tabs. E-Mail Davey713@aol.com to join.

Tunning: D-A-D-G-B-E
Low E is tuned down to D. (To Line Up Correctly Copy To Note Pad).
=================================================

Part 1 - intro

e -----------------------09-09-09-09-09-----|
B ------10---12-12-------10-10-10-10-10-----|
G ------11---11-11-------11-11-11-11-11-----|
D -----------------------0--0--0--0--0------|
A --0----------------0----------------------|
D --0----------------0----------------------|

=================================================
Other Guitar Plays
This Chord While
Part 2 - harmonics part The Harmonic is Played.
Em
e------h12-------------------| |--0--|
B----------h12---------------| |--0--|
G--------------h12-----------| |--2--|
D------------------h12-------| |--2--|
A-----------------------h7---| |--2--|

=================================================

Part 3

D D D A DM7 Em Dm D Bm7
e---2--2--2--X--X--x--X--2-- --2--
B---3--3--3--2--X--X--X--3-- --3--
G---2--2--2--2--2--2--2--2-- OR --2-
D---0--0--0--0--2--2--4--0-- --4--
A------------0--0--0--0----- --0-
D---------------------------

=================================================

Chords:

Em7 A7 G
e---0----|---0---|---3---|
B---3----|---2---|---0---|
G---0----|---0---|---0---|
D---2----|---2---|---0---|
A---2----|---0---|---5---|
D---X----|---X---|---5---|

=================================================


Part 1 - intro X 4

Part 2 - harmonics Come a little bit closer

Part 2 - harmonics Hear what I have to say

Part 3 - X 2

Part 2 - harmonics Just like children sleepin'

Part 2 - harmonics We could dream this night away

Part 3 - X 2

G
But there's a full moon risin'
G
Let's go dancing in the light

Part 1 - intro X 2

G
We know where the music's playin'
G
Let's go out and feel the night

Part 1 - intro X 2

Em7 A7
Because I'm still in love with you
A7 Em7
I want to see you dance again
Em7 A7
Because I'm still in love with you
A7
On this harvest moon


Part 1 - intro X 4

Part 2 - harmonics When we were strangers,

Part 2 - harmonics I watched you from afar

Part 3 - X 2

Part 2 - harmonics When we were lovers,

Part 2 - harmonics I loved you with all my heart

Part 3 - X 2

G
But now it's gettin' late,
G
And the moon is climbin' high

Part 1 - intro X 2

G
I want to celebrate,
G
See it shinin' in your eye

Em7 A7
Because I'm still in love with you
A7 Em7
I want to see you dance again
Em7 A7
Because I'm still in love with you
A7
On this harvest moon

Part 1 - intro X 4

===========================================
(Harmonica playin').

G -

G -

Part 3 - X 2

G -

G -

Part 1 - intro X 2

============================================

Em7 A7
Because I'm still in love with you
A7 Em7
I want to see you dance again
Em7 A7
Because I'm still in love with you
A7
On this harvest moon


Part 1 - intro X 3 - On this harvest moon

Part 1 - intro X 1

e------2--| |---5---| Finish on this chord.
B------3--| |---3---|
G------2--| OR |---2---|
D------4--| |---0---|
A------5--| |---0---|
D---------| |---0---|