My Tripod Page
Make your own free website on Tripod.com

Song: How Bizarre
Band: OMC
Album: How Bizarre
Tabbed By: Mark Ferris

Rythym:
C G F C G F C G F
Lead:
E:---12----10----8-----7----5----3----1----3----5----3----1----3----5----3--
B:---13----12---10----8----6----5----------------6---------------------6------
--
G:------------------------------------------2----4----------4----2----4-------
--4--
D:----------------------------------------------------------------------------
----------
A:----------------------------------------------------------------------------
-----------
E:----------------------------------------------------------------------------
-----------

C G F C G F

E:----12----10----8------7----5----3----1----3-----
B:----13----12---10-----8----6----5----1----3-----
G:-----------------------------------------2----4-----
D:-----------------------------------------------------
A:-----------------------------------------------------
E:-----------------------------------------------------


C G F
Pele's in the back, Zinaís in the front
C G F
Cruising down the freeway, In the hot hot sun
C G F
Suddenly red blue lights, Flash us from behind
C G F
Loud voice booming, Please step out on to the line
C G F
Pele preach words of comfort, Zina just hides her eyes
C G F
Policeman taps his shades, Is that a Chevy '69. - How Bizarre

(Suffle)

C G F C G F

E:----12----10----8------7----5----3----1----3-----
B:----13----12---10-----8----6----5----1----3-----
G:-----------------------------------------2----4-----
D:-----------------------------------------------------
A:-----------------------------------------------------
E:-----------------------------------------------------
How Bizarre - How Bizarre

C G F
Destination unknown, As we pull in for some gas
C G F
Freshly pasted poster, Reveals a smile from the past
C G F
Elephants and acrobats, Lion snakes monkey
C G F
Pele speaks righteous, Sister Zina says funky. - How Bizarre

(Suffle)

C G F C G F

E:----12----10----8------7----5----3----1----3-----
B:----13----12---10-----8----6----5----1----3-----
G:-----------------------------------------2----4-----
D:-----------------------------------------------------
A:-----------------------------------------------------
E:-----------------------------------------------------
How Bizarre - How Bizarre


CHORUS:

F C G F
Ooh Baby, ( Ooh Baby )
F C G F
Itís making me crazy - ( Itís making me crazy)
C G F
Every time I look around - (Around)
C G F
Every time I look around - (Every time I look around)
C G F C G
F
Every time I look around, Itís in my face.

C G F
Ring master steps out, Says the elephants left town
C G F
People jump and jive, Found the clowns have stuck around
C G F
TV news and cameraís, There's choppers in the sky
C G F
Marines police reporters, Ask where for and why
C G F
Pele yells we're outta here, Zina says right on
C G
F
Making moves and starting grooves, Before they knew we're gone
C G F
Jumped into the Chevy headed for big lights
C G F
Wanna know the rest. - Hey buy the rights. - How Bizarre
(Suffle)

C G F C G F

E:----12----10----8------7----5----3----1----3-----
B:----13----12---10-----8----6----5----1----3-----
G:-----------------------------------------2----4-----
D:-----------------------------------------------------
A:-----------------------------------------------------
E:-----------------------------------------------------
How Bizarre - How Bizarre

CHORUS:

F C G F
Ooh Baby, ( Ooh Baby )
F C G F
Itís making me crazy - ( Itís making me crazy)
C G F
Every time I look around - (Around)
C G F
Every time I look around - (Every time I look around)
C G F C G F

Every time I look around, Itís in my face Itís in my face.

C G F / C G F / C G F / C G F / C G F / C G F / C G F.


CHORUS: (Sing Only) (No Guitar).

Ooh Baby, ( Ooh Baby )

Itís making me crazy - ( Itís making me crazy)

Every time I look around - (Around)

Every time I look around - (Every time I look around)

Every time I look around, Itís in my face.


CHORUS:

C G F C G F
Ooh Baby, ( Ooh Baby )
F C G F
Itís making me crazy - ( Itís making me crazy)
C G F
Every time I look around - (Around)
C G F
Every time I look around - (Around)
C G F C

Every time I look around, Itís in my face.