My Tripod Page
Make your own free website on Tripod.com

ok,this next song is really amazing,you have to get the CD...
______________________________________________________________________
SONG: Dessetions
BAND: Orgy
ALBUM: Candyass
Transcribed by: Nick "Head Wannabe" Di Claudio
7 string standard tuning (Ryan Shuck)
6 string standard tuning (Amir Derakh)

Chorus/Intro
"you couldn't let go,your talking got you here..."
e||-----------------------------------------|| Gtr1 (Amir Derakh)
B||-----------------------------------------||
G||-----------5-5-4-4-7-7-2-2-4-4------3-3--||
D||--5-5------5-5-4-4-7-7-2-2-4-4------3-3--||
A||--5-5------3-3-2-2-5-5-0-0-2-2------1-1--||
E||--3-3------3-3-2-2-5-5-0-0-2-2------1-1--||

a||-----------------------------------------|| Gtr2 (Ryan Shuck)
e||--7~~~~~~--8-7~~~~~~--7~~~~--8-5~~~~~~~--||
B||-----------------------------------------||
G||-----------------------------------------||
D||-----------------------------------------||
A||-----------------------------------------||
E||-----------------------------------------||

Verse
"you found out your really something,they all talk about you..."
e||---------------------------------|| Gtr1 (Amir Derkakh)
B||---------------------------------||
G||---------------------------------||
D||---------------------------------||
A||---------------------------------||
E||-2-0----0h2-0--5-5-5--3-3-3-3-3--||

a||---7~~----5---12-13~~--7~~----5--|| Gtr2 (Ryan Shuck)
e||--------7-------------------7----||
B||---------------------------------||
G||---------------------------------||
D||---------------------------------||
A||---------------------------------||
E||---------------------------------||

Ending Riff A
"don't waste your fucking time.....let live,let go..."
e||--------------------------------------------------|>
B||--------------------------------------------------|>
G||--------------------------------------------------|>
D||-6-6-6-6-6-6-6-6-6-6-6-6-6-6-6-6--3-3-3-3-3-3-3-3-|>
A||-6-6-6-6-6-6-6-6-6-6-6-6-6-6-6-6--3-3-3-3-3-3-3-3-|>
E||-4-4-4-4-4-4-4-4-4-4-4-4-4-4-4-4--1-1-1-1-1-1-1-1-|>

<||------------------|| Gtr1 (Amir Derakh)
<||------------------||
<||------------------||
<||-7-7-7-7-7-7-7-7--||
<||-7-7-7-7-7-7-7-7--||
<||-5-5-5-5-5-5-5-5--||

Ending Riff B
a||---------------------------0~~~~~~~~~~~~~~~~~~~~~--|| Gtr2
(Ryan
e||-0~~~~~~~~~~~~~~~~~~~~~~---------------------------||
Shuck)
B||---------------------------------------------------||
G||---------------------------------------------------||
D||--8--8--8--8--8--8--8--9---6--6--6--6--6--6--6--7--||
A||--8--8--8--8--8--8--8--9---6--6--6--6--6--6--6--7--||
E||---------------------------------------------------||

here's a legend thing...
~= i'm not sure what ryan uses but i use a Lexcion
Digital Ssound Processor,yep the ol' DSP,it's my
dads,what
an old thing though,haven't seen thoses in a while huh?all my
equipement is
old becuase it's my dads old shit,so if i sold all of my pedals
and amps and
other freak ass machine things like my depth chager or my
distortion missle
pedal i'd be a rich s o b you know.
h= hammer
any way,bye bye.