My Tripod Page
Make your own free website on Tripod.com

Song: 5 Minutes Alone
Band: Pantera
Album: Far Beyond Driven
Tabbed by: Davey713@aol.com

Just a note: This song can also be played in Dropped "D", but this is
transcribed for standard tuning, down 1 and a half steps.

100 bpm
Main Riff:
|-------|-------------------------------|---------------------------------|
|-------|-------------------------------|---------------------------------|
|-------|-------------------------------|---------------------------------|
|-------|-------------------------------|---------------------------------|
|-------|-5/7-2-x-5-7-2---x-x-2-|-5/7-2-x-8\5-2---x-x-x-2-|
|-------|-3/5-0-x-3/5-0---x-x-0-|-3/5-0-x-6\3-0---x-x-x-0-|
drums

fill 1 ----------------------------------|
|------------------------------------------|
|------------------------------------------|
|------------------------------------------|
|----9------------------------------------|
|-/9---9-8-7\5---5-------4-----2-----|
|------------------7---5\3---3\1---1---|

Verse:
||-------------------------------|------|------------------------------|------
-||
||-------------------------------|------|------------------------------|------
-||
||o-----------------------------|------|------------------------------|-----o|
|
||o--2-2-2-2-2-2---2-2-2-|--%-|---1-1-1-1-1-1---1-1-1-|--%-o||
||----2-2-2-2-2-2---2-2-2-|------|---1-1-1-1-1-1---1-1-1-|--------||
||----0-0-0-0-0-0---0-0-0-|------|---0-0-0-0-0-0---0-0-0-|--------||

Chorus:
|---------------------|-------|-------|--------------------||
|---------------------|-------|-------|--------------------||
|---------------------|-------|-------|--------------------||
|------5---------7b-|--%--|--%--|------5------------||
|---/8---6-----------|-------|-------|---/8---6---------||
|-0----------4br----|-------|-------|-0----------4br\-||

Bridge type thing:
|------------------------------|-------|----------------|---------------------
--------------|
|------------------------------|-------|----------------|---------------------
--------------|
|------------------------------|-------|----------------|---------------------
--------------|
|---2-2-2-2-2-2---2-2-2-|--%--|----------------|------------------------------
-----|
|---2-2-2-2-2-2---2-2-2-|-------|----------------|-5/7-2-x-x-5/7-2---x-x-x---|

|---0-0-0-0-0-0---0-0-0-|-------|-/7~-2~-1~-|-3/5-0-x-x-3/5-0---x-x-x-3/|

|----------------|------------------------------------|----------------|
|----------------|------------------------------------|----------------|
|----------------|------------------------------------|----------------|
|----------------|------------------------------------|----------------|
|----------------|-5/7-2-x-x-5/7-2---x-x-x----|----------------|
|-/7~-6~-1~-|-3/5-0-x-x-3/5-0---x-x-x-3/|-/7~-6~-5~-|

|------------------------------------|----------------||
|------------------------------------|----------------||
|------------------------------------|----------------||
|------------------------------------|----------------||
|-5/7-2-x-x-5/7-2---x-x-x----|----------------||
|-3/5-0-x-x-3/5-0---x-x-x-3/|-/7~-2~-1~-||

Play Fill 1 lots of times

|-----------------------------------------|-------|-------|
|-----------------------------------------|-------|-------|
|-----------------------------------------|-------|-------|
|-----------------------------------------|--%--|--%--|
|-----5-----------5------4------3------|-------|-------|
|-/7---7-6-5\4---4\3---3\2----2\1-|-------|-------|

|------------------------------------------||---------------------------------
|
|------------------------------------------||---------------------------------
|
|------------------------------------------||---------------------------------
|
|------------------------------------------||---------------------------------
|
|----5-----------5-7\6-6\5-5\4-4\3-||-5/7-2-x-5/7-2---x-x-x-2-|
|-/7---7-6-5\4---5\4-4\3-3\2-2\1-||-3/5-0-x-3/5-0---x-x-x-0-|

harm. ------------------|
|------------------------------------------------|----------------------------
------|
|------------------------------------------------|----------------------------
------|
|-----------------4-4-4-4-4-4-4-4-4--2.6-|----------------------------------|
|-----------------4-4-4-4-4-4-4-4-4--2.6-|----------------------------------|
|-5/7-2-x-8\5--------------------------------|-5/7-2-x-5/7-2---x-x-x-2-|
|-3/5-0-x-6\3--------------------------------|-3/5-0-x-3/5-0---x-x-x-0-|

w/bar
-1.5 1/2 1/2
|-------------------------------|-------||------------------------------------
--------|
|-------------------------------|-------||-5brp3-5---3---5brp3-5---5-5-3-0-|
|-------------------------------|-------||-5brp3-5---3---5brp3-5---5-5-3-0-|
|-------------------------------|-------||------------------------------------
---------|
|-5/7-2-x-8\5-2-x-x-x-x-|-------||--------------------------------------------
-|
|-3/5-0-x-6\3-0-x-x-x-x-|-0---r-||--------------------------------------------
|

If you want the solo type thing, give me a mail.

||-----------------------------------------|----------------------------------
------||
||-----------------------------------------|----------------------------------
------||
||o---------------------------------------|-----------------------------------
---o||
||o---------------------------------------|-----------------------------------
---o||
||--5/7-2-------5/7-2-----------------|-5/7-2-------8\5-2------------------||
||--3/5-0-0-0-3/5-0-0-0-0-0-0-0-|-3/5-0-0-0-6\3-0-0-0-0-0-0-0--||