My Tripod Page
Make your own free website on Tripod.com

Song: Unfair
Band: Pavement
Album: Crooked Rain
Tabbed by: Adam

Intro:
e--------------------------------------------------------------
b------9--------8--------7----9-----------8-----------7---
g------x--------x--------x----x-----------x-----------x----
d------6--------5--------4----6-----------5-----------4----
a---------------------------------------------------------------
e---------------------------------------------------------------

Verse:
e----------------------------------------------------------------------------
b------9----9-----9---9--9----9----9-----15-----15---12-12-12---
g------x----x-----x---x--x----x----x------x-------x----x---x---x----
d------6----6-----6---6--6----6----6-----12-----12----9---9---9----
a------x----x-----x---x--x----x----x------x-------x----x---x---x----
e------0----0-----0---0--0----0----0------0-------0----0---0---0----

e-----------------------------------------------------------------------------


b------9----9-----9---9--9----9----9-----14-----14----12-12-12---
g------x----x-----x---x--x----x----x------x-------x-----x---x---x----
d------6----6-----6---6--6----6----6-----11-----11-----9---9---9---
a------x----x-----x---x--x----x----x------x-------x-----x---x---x----
e------0----0-----0---0--0----0----0------0-------0-----0---0---0----

e----------------------------------------------------------------------------
b------9----9-----9---9--9----9----9-----15-----15---12-12-12---
g------x----x-----x---x--x----x----x------x-------x----x---x---x----
d------6----6-----6---6--6----6----6-----12-----12----9---9---9---
a------x----x-----x---x--x----x----x------x-------x----x---x---x----
e------0----0-----0---0--0----0----0------0-------0----0---0---0----

e----------------------------------------------------------------------------
b------9----9-----9---9--9----9----9------8-------8----7---7---7----
g------x----x-----x---x--x----x----x------x-------x----x---x---x----
d------6----6-----6---6--6----6----6------5-------5----4---4---4----
a----------------------------------------------------------------------------
e----------------------------------------------------------------------------

e----------------------------------------------------------------------------
b------9----9-----9---9--9----9----9------8-------8----7---7---7----
g------x----x-----x---x--x----x----x------x-------x----x---x---x----
d------6----6-----6---6--6----6----6------5-------5----4---4---4----
a----------------------------------------------------------------------------
e----------------------------------------------------------------------------

e-----------
b-----------
g-----9----
d-----6----
a-----7----
e-----0-----