My Tripod Page
Make your own free website on Tripod.com

Song: Vietnow
Band: Rage Against the Machine
Album: Evil Empire
Tabbed by: David Stagg
http://www.geocities.com/SunsetStrip/Towers/7371/gtrtab.html

Intro
-----

(6/4)
|-------------------------------------------------|
|-------------------------------------------------|
|-------------------------------------------------|
|-------------------------------------------------|
|-4---4---7-7-----4---4---7-7---------------------|
|-2---2---5-5-----2---2---5-5---------------------|

(6/4)

(4/4).play 2 times..................(drums enter)..................
|---------------------------------|---------------------------------|
|---------------------------------|---------------------------------|
|---------------------------------|---------------------------------|
|---------------------------------|---------------------------------|
|-4-4-4-4-4-4-4-4-4---4---7-7-----|-4---4---7-7---------------------|
|-0-2-2-0-2-2-2-2-2---2---5-5-----|-2---2---5-5---------------------|


|---------------------------------|
|---------------------------------|
|---------------------------------|
|---------------------------------|
|-4-4-4-4-4-4-4-4-4---4---7-7-----|
|-0-2-2-0-2-2-2-2-2---2---5-5-----|

(6/4)
|-------------------------------------------------|
|-------------------------------------------------|
|-------------------------------------------------|
|-------------------------------------------------|
|-4---4---7-7---feedbakc w/vol. swell-------------|
|-2---2---5-5-------------------------------------|

Chorus
------

(6/4)
|-------------------------------------------------|
|-------------------------------------------------|
|-------------------------------------------------|
|-------------------------------------------------|
|-4---4---7-7-----4---4---7-7---------------------|
|-2---2---5-5-----2---2---5-5---------------------|

(4/4).play 3 times.................................................
|---------------------------------|---------------------------------|
|---------------------------------|---------------------------------|
|---------------------------------|---------------------------------|
|---------------------------------|---------------------------------|
|-4-4-4-4-4-4-4-4-4---4---7-7-----|-4---4---7-7---------------------|
|-0-2-2-0-2-2-2-2-2---2---5-5-----|-2---2---5-5---------------------|

1st Verse
---------

.play 20 times...................
|---------------------------------|
|---------------------------------|
|---------------------------------|
|---------------------------------|
|-4-4-4-4-4-4-4-4-----------------|
|-0-2-2-0-2-2-2-2-----------------|

Pre-chorus (play 2 times)
-------------------------

|---------------------------------|
|---------------------------------|
|---------------------------------|
|-4-4-----------------------------|
|-----------------------*---------|
|-----0---2---0---5-----6r5---0---|
* pre-bend and release
|---------------------------------|
|---------------------------------|
|---------------------------------|
|-4-4-----------------------------|
|---------------------------------|
|-----0---2---0---5-----6r5---0---|

|---------------------------------|
|---------------------------------|
|---------------------------------|
|-4-4-----------------------------|
|---------------------------------|
|-----0---2---0---5b6-----4---0---|

(second time play without the x:s
and in 2/4)
|---------------------------------|
|---------------------------------|
|---------------------------------|
|-4-4-x-x-x-x-x-x-x-x-x-x-x-x-x-x-|
|-----x-x-x-x-x-x-x-x-x-x-x-x-x-x-|
|-----x-x-x-x-x-x-x-x-x-x-x-x-x-x-|

Chorus
------

2nd Verse
---------

.play 16 times...................
|---------------------------------|
|---------------------------------|
|---------------------------------|
|---------------------------------|
|-4-4-4-4-4-4-4-4-----------------|
|-0-2-2-0-2-2-2-2-----------------|

Pre-chorus
----------

as before, last bar:

(bridge)---->

|--gtr. 2 (right)-----------------|
|-8---7---8---7---8---7---8---7---|
|-6---6---6---6---6---6---6---6---|
|-4---4---4---4---4---4---4---4---|
|-9-9-----------------------------|
|--gtr. 1 (left)------------------|
gtr. 1 out

..play 10 times....................
|---------------------------------|
|-8---7---8---7---8---7---8---7---|
|-6---6---6---6---6---6---6---6---|
|-4---4---4---4---4---4---4---4---|
|---------------------------------|
|---------------------------------|

|---------------------------------|
|-8---7---8---7-------------------|
|-6---6---6---6-------------------|
|-4---4---4---4---4-2-4---4-2-4---|
|---------------------------------|
|---------------------------------|

gtrs. 1 & 2 (w/wah).play 2 times.
|---------------------------------|
|---------------------------------|
|---------------------------------|
|-----4---------------------------|
|-3---------------3---------------|
|---------------------0-----------|

.................................
|---------------------------------|
|---------------------------------|
|---------------------------------|
|-----4---------------------------|
|-----------------3---------------|
|---------------------0-----------|

.................................
|---------------------------------|
|---------------------------------|
|---------------------------------|
|-----4---------------------------|
|-----------------3---------------|
|---------------------0-----------|

.................................
|---------------------------------|
|---------------------------------|
|---------------------------------|
|-----4-----------4-2-4---4-2-4---|
|---------------------------------|
|---------------------------------|

Interlude
---------

(6/4)
|-------------------------------------------------|
|-------------------------------------------------|
|-----------------------------4-/-6-------------------|
|-------------------------------------------------|
|-4---4---7-7-----4---4---2-/-4-------------------|
|-2---2---5-5-----2---2---------------------------|

(4/4).play 3 times.................................................
|------------------------------------------|----------------------------------
---------|
|------------------------------------------|----------------------------------
---------|
|------------------------------------------|----------4-/-6-------------------
-------|
|------------------------------------------|----------------------3rd
time---------|
|-4-4-4-4-4-4-4-4-4---4---7-7-----|-4---4---2-/-4------------------5------|
|-0-2-2-0-2-2-2-2-2---2---5-5-----|-2---2----------------------------3------|

(2/4)
|-----------------|
|-----------------|
|-----------------|
|-----------------|
|--4-------5------|
|--2-------3------|

Chorus
------

Outro
-----

.gtrs. 1 & 2..play 4 times........
|------------------------------------------|
|------------------------------------------|
|------------------------------------------|
|------------------------------------------|
|-4-4-4-4-4-4-4-4---x-x---x---x---|
|-0-2-2-0-2-2-2-2---x-x---x---x---|

gtr. 2
|------------------------------------------|
|------------------------------------------|
|-------15--------------------------------|
|--------tr14-----------------------------|
|-------13tr------------------------------|
|----------12-----------------------------|
| |
| |
| gtr. 1 |
|------------------------------------------|
|------------------------------------------|
|------------------------------------------|
|------------------------------------------|
|-4-4-4-4-4-4-4-4---x-x---x---x---|
|-0-2-2-0-2-2-2-2---x-x---x---x---|

play 3 times.....................
|------------------------------------------|
|------------------------------------------|
|------------------------------------------|
|-(14)------------------------------------|
|--tr----------------(continue)--------|
|-(12)------------------------------------|
| |
| |
| |
|------------------------------------------|
|------------------------------------------|
|------------------------------------------|
|------------------------------------------|
|-4-4-4-4-4-4-4-4---x-x---x---x---|
|-0-2-2-0-2-2-2-2---x-x---x---x---|

|--------------------------------------|
|--------------------------------------|
|--------------------------------------|
|--------------------------------------|
|-4-4-4-4--5-------4-------5------|
|-0-2-2-0--3-------2-------3------|

..play 3 times....................
|------------------------------------|
|------------------------------------|
|------------------------------------|
|------------------------------------|
|--4-------5-------4-------5------|
|--2-------3-------2-------3------|
(gtr. 1 out)
gtr. 2
|------------------------------------|
|------------------------------------|
|------------------------------------|
|-(14)--------------15------------|
|--tr------------------tr------------|
|-(12)--------------13------------|

David, E-Zine host