My Tripod Page
Make your own free website on Tripod.com

Song: Tire Me
Band: Rage Against the Machine
Album: Evil Empire
Tabbed by: Crazy Dan
Brought to you by Davey's Weekly Tabs. E-Mail Davey713@aol.com to join.

PULL LIKE 1/4
E)----------------------------------------------------------------
B)----------------------------------------------------------------
G)------21---21-21-21---21-21-21---21-21-21----------
D)----------------------------------------------------------------
A)------19---19-19-19---19-19-19---19-19-19----------
D)--0-------------------------------------------------------------

Then this:
E)---------------------------------------------------
B)---------------------------------------------------
G)---------------------------------------------------
D)-----3-----0--3-----0--3-----0--3------------------
A)--------5--------5--------5--------5----0--3-------
D)--0-------------------------------------0--3-------