My Tripod Page
Make your own free website on Tripod.com

Song: The Ghost of Tom Joad
Band: Rage Against The Machine
Album: Its a single that comes with the rage video.
Tabbed by: Scott Mitchell iluvguitars@hotmail.com
Brought to you by Davey's Weekly Tabs. E-Mail Davey713@aol.com to join.

Intro:
Just run your hand up and down different strings then:
E)--------------------------------------
B)--------------------------------------
G)--------------------------------------
D)--------------------------------------
A)-----5--3--0-----------3--------3-----
D)--0-----------5--3--0-----5--7--------

Verse:
pm.......................
E)--------------------------------------
B)--------------------------------------
G)--------------------------------------
D)--------------------------------------
A)--0----3--------3---------------------
D)--0-------5--7------------------------

then interlude
hold chord
E)--------------------------------------
B)--------------------------------------
G)--------------------------------------
D)--------------------------------------
A)-0------------------------------------
D)-0------------------------------------

E)--------------------------------------
B)--10--10----10--10--------------------
G)--10--10----10--10--------------------
D)--10--10----10--10--------------------
A)-------------------------