Raidohead-Just

Just by Radiohead

Intro/Clean:
e-----------------------
B-----------------------
G-5-5-7-7-6-6-6-10-10-10
D-5-5-7-7-6-6-6-10-10-10
A-3-3-5-5-4-4-4-8--8--8-
E-----------------------

Distortion:
e-----------------------------8-8-10-11-11-13-14-14-15-16-16
B-----------------------------------------------------------
G-5-5-7-8-8-10-11-11-13-14-14-5-5-7--8--8--10-11-11-13-14-14
D-5-5-7-8-8-10-11-11-13-14-14-------------------------------
A-3-3-5-6-6-8--9--9--11-12-12-------------------------------
E-----------------------------------------------------------

Here are a few additions
The verse now starts
E---5------------4-------------------6-----6--8-----8------------
B---5------------4-------------------8-9------10--11-------------
G---5------------5-------------------8--------10-----------------
D---7------------6-------------------8--------10-----------------
A---7------------6-------------------6--------8------------------
E----5-----------4------------------6--------8------------------
        Can=D5t...........It=D5s been

E---5------------4-------------------6---6-----6------------------
B---5------------4-------------------8-9-------6---6-------------
G---5------------5-------------------8---------7--8--------------
D---7------------6-------------------8---------8-----------------
A---7------------6-------------------6---------8-----------------
E----5-----------4-------------------6---------6-----------------
       Comes...        Suckered you ..


E----------------------------------------------------------------
B----------------------------------------------------------------
G-------7--9--9b-----7--------7--9--9b------7---------------
D----9-----------9--------9-------------9-----5------6-------7------
A----------------------------------------------5-----6-------7-----
E----------------------------------------------3-----4-------5------
       one day he=D5ll........and teach you.....ho----ly------cow


E-----------------3-----2-----0---------1------------1-------------
B-----------------5-----2-------3-------1------------------0--------
G-----------------5-----3---------------2--------------------------
D-----------------5-----4---------------3---------------------------
A-----------------3-----4---------------3--------------------------
E-----------------3-----2---------------1---------------------------

You do....self...........you do.........thats what really hurts

REPEAT ONCE

THEN INTRO/PRE VERSE UP-SLIDE

THEN REPEAT VERSE
=20
BRIDGE IS=20

E----------------------------------------------------------------
B---17--17--15--13--13------16--15--13-13----12-13-12--10-11--10
G---17--17--16--14-14-------17--15--13-13----12--------12-------
D----------------------------------------------------------------
A----------------------------------------------------------------
E----------------------------------------------------------------

repeat once


E----------------------------------------------------------------
B----------------------------------------------------------------
G----------------------------------------------------------------
D---5--5--5--5----4--4---4---4----3------------------------------
A---5--5--5--5-----4--4--4--4-----3----------------------------
E----3--3--3--3-----2--2--2--2-----1----------------------------








Make your own free website on Tripod.com