Silverchair-Freak

Date: Tue, 22 Jul 1997 11:56:49 -0700
From: info@profile.ca
Subject: FREAK by SILVERCHAIR


Song:		Freak, as on the studio version
Artist:	Silverchair
Album:	Freakshow
Tab by:	Jay, resident of Rosemere, Quebec


  
Drop-D tuning(EBGDAD)
_ = slide

It goes:
	Intro
	Verse 1.
	Chorus
	Fill
	Interlude-1
	Verse 2.
	Chorus
	Verse-3	
	Interlude-2
	Solo
	Interlude-2
	Ending


Intro
E--------------------------------------
B--------------------------------------
G--------------------------------------
D--2----0--2--2----2---2---2---0--0--0-
A--2----0--2--2----2---2---2---0--0--0-
D--2----0--2--2----2---2---2---0--0--0-


Verse
E--------------------------------------
B--------------------------------------
G--------------------------------------
D--2----0--2--2----2---2---2---0--0--0-
A--2----0--2--2----2---2---2---0--0--0-
D--2----0--2--2----2---2---2---0--0--0-
1. No  more     may__bes____
   The baby's got ra_bies___
   Sitting  on  a  ball_____
   In the middle of the andes_
2. Try to be    diff_erent__
   To get a different disease_
   Seems it's in fa__shion__
   To need the cold soar cream_


Chorus
E----------------------------------------
B----------------------------------------
G----------------------------------------
D--0----3--4--4----0---0---3--4--4--4--4-
A--0----3--4--4----0---0---3--4--4--4--4-
D--0----3--4--4----0---0---3--4--4--4--4-
      Yeah______heah_______         I'm a

E----------------------------------------
B----------------------------------------
G----------------------------------------
D--0----3--4--4----0---0---3__4-----4__6-
A--0----3--4--4----0---0---3__4-----4__6-
D--0----3--4--4----0---0---3__4-----4__6-
   freak__      of nature

E----------------------------------------
B----------------------------------------
G----------------------------------------
D--0----3--4--4----0---0---3--4--4--4--4-
A--0----3--4--4----0---0---3--4--4--4--4-
D--0----3--4--4----0---0---3--4--4--4--4-
      Yeah______heah_______         I'm a

E----------------------------------------
B----------------------------------------
G----------------------------------------
D--0----3--4--4----0---0---3--4--4--4--4-
A--0----3--4--4----0---0---3--4--4--4--4-
D--0----3--4--4----0---0---3--4--4--4--4-
   freak________________________________


Fill
E----------------------------------------
B----------------------------------------
G----------------------------------------
D--3-------------------------------------
A--3-------------------------------------
D--3-------------------------------------
   If only i could be___ as cool as you__

E--------------------------------------
B--------------------------------------
G--------------------------------------
D--2----0--2--2----2---2---2---0--0--0-
A--2----0--2--2----2---2---2---0--0--0-
D--2----0--2--2----2---2---2---0--0--0-
   ou_________

E--------------------------------------
B--------------------------------------
G--------------------------------------
D--2----0--2--2----2---2---2---0--0--0-
A--2----0--2--2----2---2---2---0--0--0-
D--2----0--2--2----2---2---2---0--0--0-
   as cool as you___

E--------------------------------------
B--------------------------------------
G--------------------------------------
D--2----0--2--2----2---2---2---0--4--4-
A--2----0--2--2----2---2---2---0--4--4-
D--2----0--2--2----2---2---2---0--4--4-


Interlude-1
E-----------------------------------
B-----------------------------------
G-----------------------------------
D------3-------5-----0---4---2---0--
A----3---3---3----------------------
D--3-------3-----0-0---0---0---0----
           Body and soul_____I'm a

E-----------------------------------
B-----------------------------------
G-----------------------------------
D------3-------5-----0---4---2---0--
A----3---3---3----------------------
D--3-------3-----0-0---0---0---0----
   freak_  I'm a freak_____


Verse-3
E--------------------------------------
B--------------------------------------
G--------------------------------------
D--5----5_2-------------5--5---4-------
A--5----5_2-------------5--5---4-------
D--5----5_2-------------5--5---4-------
   I    don't           really know
   How  to put on a     cool   show
   As   boring    as    they   come
   Just tell me   where to     go


Solo
E------------------------------------------------------------
B-10-10-10-10-10-10-10-10-13-13-13-13------------------------
G-------------------------------------11-11-11-11-11-11-11-11
D------------------------------------------------------------
A------------------------------------------------------------
D------------------------------------------------------------

E------------------------------------------------------------
B-10-10-10-10-10-10-10-10-13-13-13-13------------------------
G-------------------------------------11-11-11-11-11-11-11-11
D------------------------------------------------------------
A------------------------------------------------------------
D------------------------------------------------------------

E------------------------------------------------------------
B-12-12-12-12-12-12-12-12-12-12-12-12------------------------
G-------------------------------------11-11-11-11-11-11-11-11
D------------------------------------------------------------
A------------------------------------------------------------
D------------------------------------------------------------

E------------------------------------------------------------
B-10-10-10-10-10-10-10-10-10-10-10-10------------------------
G-------------------------------------11-11-11-11-11-11-11-11
D------------------------------------------------------------
A------------------------------------------------------------
D------------------------------------------------------------


Interlude-2
E--------------------------------------------------
B--------------------------------------------------
G--------------------------------------------------
D-----------------5--5-----------------------------
A--3--3--3--3--3--3--3--3--0--0--0--0--0--0--0--0--
D--3--3--3--3--3--------3--0--0--0--0--0--0--0--0--
               Bo_dy    and soul__    I'm a freak_

E--------------------------------------------------
B--------------------------------------------------
G--------------------------------------------------
D-----------------5--5-----------------------------
A--3--3--3--3--3--3--3--3--0--0--0--0--0--0--0--0--
D--3--3--3--3--3--------3--0--0--0--0--0--0--0--0--
   ____         I'm  a  freak_____________________


Ending
E--------------------------------------
B--------------------------------------
G--------------------------------------
D--2----0--2--2----2---2---2---0--0--0-
A--2----0--2--2----2---2---2---0--0--0-
D--2----0--2--2----2---2---2---0--0--0-




Make your own free website on Tripod.com