My Tripod Page
Make your own free website on Tripod.com

Psychopomp
By 'The Tea Party'
from the album 'Transmission'
Tabbed by Mark Webber 14/11/98

Standard tuning

fig.1 - guitar 1 (acoustic)
|--3-----------------|
|--------0--------0--|
|-----3--------3-----|
|--------------------|
|--------------------|
|-----------0--------|

Verse 1 - guitar 1 plays fig.1 while guitar 2 plays fig.2

fig.2 - guitar 2 (acoustic)
|--0--0--0--0--0--0--0--0-0--|--0--0--0--0--0--0--0--0-0--|
|--0--0--0--0--0--0--0--0-0--|--0--0--0--0--0--0--0--0-0--|
|.-0--0--0--0--0--0--0--0-0-.|.-0--0--0--0--0--0--0--0-0-.|
|.-4--4--4--4--4--4--4--2-2-.|.-4--4--4--4--4--4--4--2-2-.| x2
|--2--2--2--2--2--2--2--2-2--|--3--3--3--3--3--3--3--3-3--|
|--0--0--0--0--0--0--0--0-0--|--0--0--0--0--0--0--0--0-0--|

1 & 2 & 3 & 4 & a 1 & 2 & 3 & 4 & a

|--0--0--0--0--0--0--0--0--|--0--0--0--0-0--0--0--0--0-0--0--0--0--0-0--
|--0--0--0--0--0--0--0--0--|--0--0--0--0-0--0--0--0--0-0--0--0--0--0-0--
|.-0--0--0--0--0--0--0--0-.|.-0--0--0--0-0--0--0--0--0-0--0--0--0--0-0--
|.-5--4--5--4--5--4--5--4-.|.-5--5--5--5-5--4--4--4--4-4--2--2--2--2-2--
|--5--5--5--5--5--5--5--5--|--3--3--3--3-3--3--3--3--3-3--3--3--3--3-3--
|--------------------------|--------------------------------------------

--0--0--0--0-0--|
--0--0--0--0-0--|
--0--0--0--0-0-.|
--4--4--4--4-4-.| x2
--3--3--3--3-3--|
----------------|

Verse 2 - guitars 1 and 2 play the same as before while another guitar
plays this:

guitar 3 - (electric w/modulator)
|--0--------------------------0-------------------------------|
|--0--------------------------0-------------------------------|
|.-0--------------------------0------------------------------.|
|.-4--------------------------4------------------------------.|
|--2--------------------------3-------------------------------|
|--0-------------------------(0)------------------------------|

Then guitar 3 plays the second half of fig.2 without all the open strings.


CHORUS

|--0--0--0--0--0--0--0--0--|--0--0--0--0--0--0--0--0--0--0--0--0--
|--0--0--0--0--0--0--0--0--|-(3)(3)(3)(3)(1)(1)(1)(1)-0--0--0--0--
|.-0--0--0--0--0--0--0--0-.|--0--0--0--0--0--0--0--0--0--0--0--0--
|.-4--4--4--4--4--4--4--4-.|--4--4--4--4--4--4--4--4--4--4--4--4--
|--2--2--2--2--2--2--2--2--|--3--3--3--3--3--3--3--3--3--3--3--3--
|--0--0--0--0--0--0--0--0--|--------------------------------------

--------------| (You can play the notes in brackets or just
-(1)(1)-0--0--| play it as an open string)
--0--0--0--0--|
--4--4--4--4--|
--3--3--3--3--|
--------------|


DISTORTED GUITAR PART

|----------||-----------------------------||----------|
|----------||-----------------------------||----------|
|----------||--5/7~-----------------------||----------|
|--7/9~\7--||-------7/9\7/9~~\7-----------||--7/9~\7--|
|----------||-----------------------------||----------|
|----------||--------------------------8--||----------|

|-----------------------------------------------|
|-----------------------------------------------|
|--4h7------------------------------------------|
|--------7/9\7/9~~~~~~~~~~~~~~~~~------9b10--9--|
|-----------------------------------------------|
|-----------------------------------------------|

x4
|-------------------------------------------------||--------------|
|-------------------------------------------------||--------------|
|.-----------------------------------------------.||--------------|
|.-----------------------------------------------.||--------------|
|-------------------------------------------------||--------------|
|--0-10-12--0-10-12--0-10-12--0-10-12--0-10-12----||--0-14b15r14--|
play this
at the end of each 4

|-------------------------------------------------|
|-------------------------------------------------|
|-------------------------------------------------|
|-------------------------------------------------| One time he plays this
|----17-19----17-19----17-19----17-19-21b22r21----|
|--0--------0--------0--------0-------------------|



LIVE PARTS

This is the part he plays before the end:

|-------------------------------|--------------------------------|
|-------------------------------|--------------------------------|
|-11/12\11----9/11\9------------|---11/12\11----9/11\9-----------|
|--x----------x---------9\7/9---|----x----------x---------9\7/9--|
|--9/10\-9----7/-9\7----x-------|----9/10\-9----7/-9\7----x------|
|-----------------------7\5/7---|-------------------------7\5/7--|

|-------------------------------|--------------------------------|
|-------------------------------|--------------------------------|
|--12/14\12---9/11\9------------|---12/14\12---9/11\9------------|
|---x---------x--------10\9/10--|----x---------x--------10\9/10--|
|--10/12\10---7/-9\7----x-------|---10/12\10---7/-9\7----x-------|
|-----------------------8\7/-8--|------------------------8\7/-8--|

That's all. Please send feedback/suggestions to webber@orac.net.au