Make your own free website on Tripod.com


Author/Artist: The Flys
Title: Got You (Where I Want You)
Transcribed by: Chris Spence
Email: Slider15_@hotmail.com

This is a great song to play, especially as a band.

Tune Down Slightly, Flats Eb etc...

Intro and Verse Riff:
E-------------------------------------|
B-------------------------------------|
G-----------------5h7-7-7-7-7-7-7-7-7-|
D-----------------0---0-0-0-0-0-0-0-0-|
A---7-6-7---7-6-7---------------------|
E-0-------0---------------------------|

Chorus:
E-----------------|-----------------|
B-----------------|-----------------|
G-----------------|-6-6-6-6-6-6-6-6-|
D-9-9-9-9-9-9-9-9-|-7-7-7-7-7-7-7-7-|
A-7-7-7-7-7-7-7-7-|-----------------|
E-----------------|-----------------|

This part is played even when it gets really heavy, there is alos a really cool bass riff in the back that goes with it. If you have 2 guitars try playing the intro on one during the heavy part of the song.